Genocide Intro ver2 Tab - Suicide Silence






                      im sorry but only thing i have
                       for you is intro i know few
                       more parts after but i didnt
                        want to post partial tab
                         enjoy this tab, drop A
                         tuning,rate and comment




Intro Guitar 1
E|-------------------------------------|
B|-------------------------------------|
G|-------------------------------------|
D|----------7------7-------------------|
A|-------------------------------------|
E|--00-0-0--5--0---5--00-0-00--1-------|
A|--00-0-0-----0------00-0-00--1-------|

Intro Guitar 2
E|-------------------------------------|
B|-------------------------------------|
G|-------------------------------------|
D|-------------------------------------|
A|----------12------12-----------------|
E|--00-0-0--12--0---12--00-0-00--1-----|
A|--00-0-0--12--0---12--00-0-00--1-----|



                       i will have the whole song tabbed
                                 very soon.

ĂŽnscrie-te la newsletter


Like us on Facebook