Eyes Of A Child Intro Tab - Sully Erna




-------------------------------------------------------------------------------
     EYES OF A CHILD - sULLY eRNA
-------------------------------------------------------------------------------
Tabbed by: Vovar
Email: Vovar12@yahoo.com



|-------------------------------------------------------------------|
|-------3---------------3-------------------------------------------||
|-----4-----4---------4-----4-----------4---0-----------------------| repeat
|---4---------4-----4---------4-------0-------0---------2-------4---|/ lots of 
|-2-------------2-0-------------0---2-----------0-----2-------4---4-|| times
|---------------------------------3---------------2-0-----0-2-------|/
Chords
Aboneaza-te la newsletter
Join the ranks ! LIKE us on Facebook