Bullet Bass Tab - Supergrass






----------------------------------------------------------------------------
     SONG NAME - Band Name
----------------------------------------------------------------------------

Tabbed By : StevieB
e-mail: steeeeeve13@hotmail.com

Tuning: Standard EADG

Intro/Main Riff
G|-------------------------------------------------------------------------|
D|----------------------------------------------------------8-8-8-1010-11-12
A|-------------------------9-9-9-9-9-9-9-99-8-8-8-8-8-8-8-88---------------|
E|8--10-10-10-10-10-10-1010------------------------------------------------|

G|-------------------------------------------------------------------------|
D|-------------------------------------------------------------------------|
A|-------------------------9-9-9-9-9-9-9-99-8-8-8-8-8-8-8-88---------------|
E|8--10-10-10-10-10-10-1010----------------------------------6-6-6-6-8-10-12

Chorus X4
G|-------------------------------------------------------------------------|
D|-------------------------------------------------------------------------|
A|------------------------9-9-9-9-10-11-12-8-8-8-8-8-----------------------|
E|8--10-10-10-10-10-10-10----------------------------8-6-6-6-6-8-10-12-----|

Riff ver 2 (Riff played 4 times vary each time but on last 1 play like this)
G|-------------------------------------------------------------------------|
D|-----------------------------------------------------10-8--8-10-11-12----|
A|------------------------9-9-9-9-9-9-9-9-8-8-8-8--------------------------|
E|8--10-10-10-10-10-10-10-------------------------8--8---------------------|

Break
G|-------------------------------------------------------------------------|
D|-------------------------------------------------------------------------|
A|-------------------------------------------------------------------------|
E|-10-10-10-10-10-10-10-10-10-10-10-10-10-6--6--10-10-10-10-10-10-10-10----|
etc

Listen carefuly yourself for all the other little changes

| /  slide up
|   slide down
| h  hammer-on
| p  pull-off
| ~  vibrato
| +  harmonic
| x  Mute note
============================================================================






Like us on Facebook