Mary Bass Tab - Supergrass






Artist: SUPERGRASS
Song: MARY
Album: Supergrass
Tabbed by Marco F.

Standard tuning E A D G

VERSE

G --------------------------------------------
D ------13--13/15--15-------------------------
A --11-----------------158----10--------10--8
E ---------------------------8-----8-8-8------
  

CHORUS

G ------------------------------------------------
D ------------5--3-3------------------------------
A -------3-6---------3---------3-3---1---3-3-3-2-1--
E --4-4-----------------4--1-------3---------------5

 ....variation:  A 3-3-(x)-3-1---
 E ------------3-
  

Actually this song's not too hard, but the timing can put your monkey up...so
listen to the song to get the groove.






Like us on Facebook