f**k Your Enemy (ver2) Bass Tab - Superjoint Ritual




Band: Superjoint Ritual
Album: Use Once and Destroy
Song: f**k Your Enemy
Transcribed By: The Great Southern Trendkill
E-mail: fromadyingfetus@aol.com


/  - slide up to           - slide down to 

Tunning C# F# B E 

Fill
E |-----------------|-----------------|
B |-----------------|-----------------|
F#|-----------------|-----------------|
C#|-0-0-------------|-0---------------|
   

Main Riff 
E |-----------------|-----------------|
B |-----------------|-----------------|
F#|-----------------|-----------------|
C#|-0-0-3-0-3-0-3-0-|-3-0-3/6-------0-|

   G
E |---|
B |---|
F#|-5-|
C#|-3-|

   6/4 Break
E |-------------------------|
B |-7-6-5-------------------|
F#|-------7-6-5-------------|
C#|-------------7-6-5-3-4-5-|

Intro
  Fill           2X's
Verse
  Main Riff4X's
Post-Verse
  Main Riff (half-time) 4X's
Verse
  Main Riff4X's
"Die when you can't do no more damage"
  Gsilent
  Main Riff2X's
  GSilent
  Main Riff4X's
Bridge
  6/4 BreakSilent
  Main Riff1X
  6/4 BreakSilent
  Main Riff1X
  6/4 BreakSilent
  Main Riff1X
  6/4 Break1X
Outro
  Main Riff4X's

ĂŽnscrie-te la newsletter


Join the ranks ! LIKE us on Facebook