The Horror Bass Tab - Superjoint Ritual




                         Superjoint Ritual
                            The Horror
    
Tuning: Standard 

Riff 1a
|---------------------|
|---------------------|
|---------------------|
|-5-5-0-5-5-0-5-6-9---|

Riff 1b

|---------------------|
|---------------------|
|---------------------|
|-5-5-0-5-5-0-5-6-8---|

Fill

|-------|
|-------|
|-------|
|-6-5---|

Riff 2

|---------------------|
|---------------------|
|---------------------|
|-3-2---3-2---3-2-----|

Riff 3

|---------------------|
|---------------------|
|---------------------|
|-2--2--1-------------|

Înscrie-te la newsletter


Join the ranks ! LIKE us on Facebook