The Knife Rises Bass Tab - Superjoint Ritual




                         Superjoint Ritual
                          The Knife Rises
Tuning: Standard

r - let ring
h - hammer on
/ - slide up
 - slide down
x - fretting


chorus                          alternative chorus
------------------|Alternative|------------------|
------------------|           |------------------|
------------------|           |-----2-------2----|
-0-0-7-3r---0-7-2-|           |-0-0---3r--0---2r-|

verse
---------------------------------|
---------------------------------| 
---------------------------------|
-7h6--3h4-/-6h7-/-5-5-6-6-3-2-2-|

interlude
---------------------------------|-----------------|
---------------------------------|-----------------|
---------------------------------|-----------------|
-5-5-5-5-6-6-6-6-3-3-3-3-2-2-2-2-|-5-5-6-6-3-3-2-2-|



play before and during the solo part
--------------------------------------------------------------|
--------------------------------------------------------------|
--------------------------------------------------------------|
-0-0-10--0-0--0-8--0-0--0-10---0-x-x-x-x-0--x-x-x-x-0-x-x-x-x-|

you should be able to figure out the order i doubt your stupid

ĂŽnscrie-te la newsletter


Join the ranks ! LIKE us on Facebook