Waiting For The Turning Point Bass Tab - Superjoint Ritual




Band:Superjoint Ritual
Song:Waiting for the turning point
Album:A lethal dose of american hatred

Tabbed by:Dark Ruler (midian@ispsaver.com)
Tuning:D A D G

Intro
G -------------------|
D -------------------|
A -------------------|
D -0-2-0-2-0-2-------|

 x4
G ---------------------------|
D ---------------------------|
A ------8-88-8---------------|
D 5-55-5-------7-77-7-6-66-6-|

G -------------------|
D -------------------|
A -------------------|
D -0-2-0-2-0-2-------|

 x2
G ---------------------------|
D ---------------------------|
A ------8-88-8---------------|
D 5-55-5-------7-77-7-6-66-6-|

 x4
G -------------------|
D -------------------|
A -------------------|
D 2222-1111----------|

 x4(Play kinda slow)
G -------------------|
D -------------------|
A -------------------|
D 2222-1111----------|

 x2
G ----------------------------------------|
D ----------------------------------------|
A ----------------------------------------|
D 1111-2222-3333-4444-5555-6666-7777-8888-|

 x2(Play kinda slow)
G ----------------------------------------|
D ----------------------------------------|
A ----------------------------------------|
D 1111-2222-3333-4444-5555-6666-7777-8888-|


G -------------------|
D -------------------|
A -------------------|
D -0-2-0-2-0-2-------|

 x4
G ----------------------------|
D ----------------------------|
A -------8-88-8---------------|
D 5-55-5--------7-77-7-6-66-6-|

G -------------|
D -------------|
A -------------|
D -0-2-0-2-----|
End
If there are any problems or missing parts please email me.
Hope you enjoy this tab this is my second tab. Enjoy!

ĂŽnscrie-te la newsletter


Join the ranks ! LIKE us on Facebook