Eye Of The Tiger (ver2) Bass Tab - Survivor






Artist:Survivor
Title:Eye of the tiger

Rocky Theme!!

If you Want to play the intro its just palm muted of the G string
G:|-5-5-5-5-5-5-5-5-|
D:|-----------------|
A:|-----------------|
E:|-----------------|

Start
G:|-----------------------------------------------|
D:|-----------------------------------------------|
A:|-3--3-1-3--3-1-3-3-1---------------------------|
E:|---------------------4-------------------------|

Verse
G:|-----------------------------------------------|
D:|-----------------------------------------------|
A:|-3-3-3-3-3-3-3-----1---------------------------|
E:|--------------0h1h3----------------------------|

Chorus/Interlude
G:|----------------------------1---1-3-1-3-5------|
D:|-3------3---------3-----------3----------------|
A:|---1--1-----1---1-----1---1--------------------|
E:|-----------------------------------------------|

ĂŽnscrie-te la newsletter


Like us on Facebook