Eye Of The Tiger (ver2) Tab - Survivor






abS SubmiTted by: Madd Juggla
This is how I play it and it sounds perfect...


Verse:
|-----------|
|-----------|
|-----------|
|-----------|
|-7---7-5-7-|
|-5---5-3-5-|

|-------|
|-------|
|-------|
|-------|
|-7-5-7-|
|-5-3-5-|

|-------|
|-------|
|-------|
|-------|
|-7-5-3-|
|-5-3-1-|

Verse: w/ more distortion

|-7---7-5-7--|
|-7---7-5-7--|
|-8---8-6-8b-|
|-9---9-7-9b-|
|-9---9-7-9b-|
|-7---7-5-7--|


|-7-5-7--|
|-7-5-7--|
|-8-6-8b-|
|-9-7-9b-|
|-9-7-9b-|
|-7-5-7--|

|-7-5-7-3--|
|-7-5-7-3--|
|-8-6-8-4b-|
|-9-7-9-5b-|
|-9-7-9-5b-|
|-5-3-5-3--| 

ĂŽnscrie-te la newsletter


Like us on Facebook