Eyes Of The Tiger Intro Tab - Survivor






e|---------------------------------------------------------------------------|
B|---------------------------------------------------------------------------|
G|---------------------------------------------------------------------------|
D|--10--10--8---10--10--8---10--10--8---6------------------------------------|
A|--10--10--8---10--10--8---10--10--8---6------------------------------------|
E|--8---8---6---8---8---6---8---8---6---4------------------------------------|

e|---------------------------------------------------------------------------|
B|---------------------------------------------------------------------------|
G|---------------------------------------------------------------------------|
D|--10--10--8---10--10--8---10--10--8---6------------------------------------|
A|--10--10--8---10--10--8---10--10--8---6------------------------------------|
E|--8---8---6---8---8---6---8---8---6---4------------------------------------|

e|---------------------------------------------------------------------------|
B|---------------------------------------------------------------------------|
G|--9---9---7---9---9---7---9---9---7---5------------------------------------|
D|--10--10--8---10--10--8---10--10--8---6------------------------------------|
A|--10--10--8---10--10--8---10--10--8---6------------------------------------|
E|--8---8---6---8---8---6---8---8---6---4------------------------------------|

e|---------------------------------------------------------------------------|
B|---------------------------------------------------------------------------|
G|--9---9---7---9---9---7---9---9---7---5------------------------------------|
D|--10--10--8---10--10--8---10--10--8---6------------------------------------|
A|--10--10--8---10--10--8---10--10--8---6------------------------------------|
E|--8---8---6---8---8---6---8---8---6---4------------------------------------|

e|-------|
B|-------|
G|--9----|
D|--10---|
A|--10---|
E|--8----|

ĂŽnscrie-te la newsletter


Like us on Facebook