I Cant Hold Back Solo Tab - Survivor






Hey this is my first tab
it's really easy and if played right it can be awesome
listen to the song, it's great!


h = hammer 
b = bend up

E|------------------------|-12-11----------------11-12-------|
A|-9-9-9-9-9--10--7----7--|-------14-12----------------------|
D|-------------------9----|-------------14-13-11-------------|
G|------------------------|----------------------------------|
B|------------------------|----------------------------------|
E|------------------------|----------------------------------|

E|-16-14------14----------|-16-17-19-19b---------------------|
B|--------h17-------------|----------------------------------|
G|------------------------|----------------------------------|
D|------------------------|----------------------------------|
A|------------------------|----------------------------------|
E|------------------------|----------------------------------|

ĂŽnscrie-te la newsletter


Like us on Facebook