Kill Rock N Roll Chords - System of a Down






Standard Tuning - Capo 4. Fret

E|---------------------------------|---------------------------------|
H|---------------------------------|---------------------------------|
G|---------------------------------|---------------------------------|
D|---5---5---5---5---5---5---5---5-|---5---5---5---5---5---5---5---5-|
A|-3---3---3---3---3---3---3---3---|---------------------------------|
E|---------------------------------|-0---0---0---0---0---0---0---0---|

E|---------------------------------|---------------------------------|
H|---------------------------------|---------------------------------|
G|---------------------------------|---------------------------------|
D|---4---4---4---4---4---4---4---4-|---4---4---4---4---4---4---4---4-|
A|-2---2---2---2---2---2---2---2---|-3---3---3---3---3---3---3---3---|
E|---------------------------------|---------------------------------| Play it two times

     C5     G5     H5      F#5      Em     
So I felt like the biggest a*****e
(Felt like the biggest a*****e)
        C5     G5   H5   F#5    Em  
When I killed your rock 'n roll
(Mow down the sexy people)

C
Every time I look in your eyes
Em
Everyday I'm watching you die
H7
All the thoughts I see in you
C       
About how I

(play it two Times)


C - Em - H7 - C :| (two times)

C
Eat all the grass
                    D
Eat all the grass that you want
Dm                  C
Accidents happen in the dark
                         D
Eat all the grass that you want
Dm                      C
Accidents happen in the dark
                        D
Eat all the grass that you want
Dm                        C
Accidents happen in the dark
                        D
Eat all the grass that you want
Accidents happen

Every time I look in your eyes
Everyday I'm watching you die
All the thoughts I see in you
About how I

So I felt like the biggest a*****e
When I killed rock 'n roll
And I felt like the biggest a*****e
When I kill rock 'n roll 






Like us on Facebook