Lonely Day Bass Tab - System of a Down






Have fun do an good time 

Intro : guitar solo

Bass+Drums :      
F----------------------|      
C-6-6-------9-9--------| X4
G------7-7-------6-6---| (00:38-00:51)
C----------------------|


F----------------------|
C-6--------9-----------| X4
G------7--------6------| (00:51-01:16)
C----------------------|

 
F----------------------|
C----------------------| X2
G-7-7--6-6--9-9--11-11-| (01:16-01:29)
C----------------------|


F--------------------------|
C--------------------------| (01:29-01:55)
G-777777777777888888888888-|
C--------------------------|


F----------------------|
C-6--------9-----------| X4
G------7--------6------| (01:55-02:00)
C----------------------|


F----------------------|
C-6-6-------9-9--------| X4
G------7-7-------6-6---| (02:00-02:55)
C----------------------|


outro of guitar               
               

if you want canctact me : alex_the_cool@hotmail.com

Be PEACE AND MAKE LOVE






Like us on Facebook