Violent Pornography (ver2) Bass Tab - System of a Down






Violent Pornography/System of a Down
You really only need to drop the E and A strings

Intro/Chorus
Gb|-------------------------------------------------------------------------|
Db|-------------------------------------------------------------------------|
Ab|-------------------------------------------------------------------------|
Db|-0~---4~---5~---7~---8~---10~---12~---8~---------------------------------|

Verse pt. 1 (everybody, everybody)
Gb|-------------------------------------------------------------------------|
Db|-------------------------------------------------------------------------|
Ab|-56--67--76--65----------------------------------------------------------|
Db|-------------------------------------------------------------------------|

Verse pt. 2 (non-stop disco)
Gb|-------------------------------------------------------------------------|
Db|-------------------------------------------------------------------------|
Ab|-------------------------------------------------------------------------|
Db|-12--00-0-00-000-0-00-000-0-00-1-3-4-00-0-00-000-0-00-000-0-00-4-3-1----|

Gb|-------------------------------------------------------------------------|
Db|-------------------------------------------------------------------------|
Ab|-------------------------------------------------------------------------|
Db|-00-0-00-000-0-00-000-0-00-1-3-4-00-0-00-000-0-00-000-0-00-4-3-----------|

Chorus pt. 2
Gb|--------------------------------------------------------------------------|
Db|--------------------------------------------------------------------------|
Ab|--------------------------------------------------------------------------|
Db|-0-000000--4-444444--5-555555--7-777777--8-8888888------------------------|

Gb|-------------------------------------------------------------------------|
Db|-------------------------------------------------------------------------|
Ab|-------------------------------------------------------------------------|
Db|-10-101010101010--12-121212121212--8-888888------------------------------|

That's it! easy. special thanks to the tab by MuddahPlucka






Like us on Facebook