Downtown Tab - Tegan And Sara




a pretty easy but beuatiful song, have fun :) (listen to the song for the rythm)

Verse:

E ---12---9---10---|
A ---12---9---10---|
D ----0---0----0---|
G ----0---0----0---|
B -----------------|
e -----------------|

Chorus:

E ---2---3---5---0---|
A ---2---2---4---5---|
D ---0---0---0---0---|
G ---0---0---0---0---|
B -------------------|
e -------------------|

Bridge (1st part)

E ---5---2---3---5---|
A ---5---2---2---4---|
D ---0---0---0---0---|
G ---0---0---0---0---|
B -------------------|
e -------------------|

Bridge (2nd part)

E ---12---9---10---|
A ---12---9---10---|
D ----0---0----0---|
G ----0---0----0---|
B -----------------|
e -----------------|

ĂŽnscrie-te la newsletter


Join the ranks ! LIKE us on Facebook