Monday Monday Monday (ver3) Tab - Tegan And Sara




Tegan and Sara
Monday 3X
Acoustic
Capo 4th Fret
http://www.youtube.com/watch?v=YITplWLv-_I

Verse/Intro

       ?  Em   ?    Em
E|--------------------|
B|--------------------|     And the strumming is kind of like a very
G|--------------------|     quick down up down, and a then some quieter
D|-----4--2---4---2--|     down strokes, and then down up down each
A|-----5--2---5---2--|     time you switch chords
E|--------------------|

?                        Em
This week or last week I---Dont really care about it anymore

?                           Em
I write myself this letter   I tell myself you let me go

Pre Chorus

     G    Em
E|---3--------|
B|---3--------|
G|---4--------|
D|---5-----2--|              Essentially the same strumming
A|---5-----2--|
E|---3--------|

G          Em
Without me/yeah Whats wrong with you?

Chorus

E|-----------------------|
B|-----------------------|
G|--99X--55--X-77--77777|       5X
D|--99X--55-X-77--77777|
A|--77X--33--X-55--55555|
E|--77X--33--X-55--55555|

Bridge (this part Im not totally positive on, check the video for the chord changes and 
position)

E|---------------------------------|
B|---------------------------------|
G|-------------5---9-------9---5---|
D|-9---5---9---5---9---5---9---5---|
A|-9---5---9---3---7---5---7---3---|
E|-7---3---7-----------3-----------|

And then the end is just a repeat of the chorus, thats it. Pretty easy song

~Mads

Înscrie-te la newsletter


Join the ranks ! LIKE us on Facebook