Monday Monday Monday Tab - Tegan And Sara




"Monday Monday Monday" Tegan and Sara

VERSES
e|---8---5-----------------|
B|---9---6-----------------|
G|--10---7-----------------|
D|--10---7-----------------|
A|-------------------------|
E|-------------------------|


CHORUS is this chord
e|--3-------------------|
B|--3-------------------|
G|--0-------------------|
D|--2-------------------|
A|--3-------------------|
E|----------------------|

This is played 2:10 into the song, and at the end.
e|--2--2--2----------------|
B|--2--2--2----------------|
G|--0--1--0----------------|
D|--2--0--0----------------|
A|--3----------------------|
E|-------------------------|

ĂŽnscrie-te la newsletter


Join the ranks ! LIKE us on Facebook