My Number (ver2) Tab - Tegan And Sara




--------------------------------------------------
---------- tegan and sara - "my number" ----------
--------------------------------------------------

i've noticed that there's only one other tab 
for this song, and the other one wasn't completely 
correct, so i thought i'd tab it out the way i 
saw them play it live. i'm almost 100% certain 
that these tabs are completely correct. enjoy!

capo 7th

intro (palm-muted):
e|-x-|-x-|-x-|-x-|
B|-x-|-x-|-0-|-0-|
G|-0-|-0-|-0-|-0-| play x4
D|-0-|-0-|-0-|-0-|
A|-x-|-2-|-2-|-2-|
E|-7-|-0-|-3-|-3-|


verse 1 (palm-muted):
(showers pounding out...)
e|-x-|-x-|-x-|-x-|
B|-x-|-x-|-0-|-0-|
G|-0-|-0-|-0-|-0-| play x8
D|-0-|-0-|-0-|-0-|
A|-x-|-2-|-2-|-2-|
E|-7-|-0-|-3-|-3-|


pre-chorus (palm-muted):
(watch your head...)
e|-x-|-x-|-x-|-x-|
B|-x-|-x-|-0-|-0-|
G|-0-|-0-|-0-|-0-| play x4
D|-0-|-0-|-0-|-0-|
A|-x-|-2-|-2-|-2-|
E|-7-|-0-|-3-|-3-|


chorus:
(if i gave you my number...)
                     x2
e|-0-|-x-|-x-|-x-|-x-||-x-|-x-|-x-|
B|-1-|-0-|-0-|-0-|-0-||-0-|-0-|-0-|
G|-0-|-0-|-0-|-0-|-0-||-0-|-0-|-0-|
D|-2-|-0-|-0-|-0-|-0-||-0-|-0-|-0-|
A|-3-|-2-|-x-|-2-|-2-||-x-|-2-|-2-|
E|---|-3-|-7-|-0-|-3-||-7-|-0-|-3-|


[intro]


verse 2 (palm-muted):
(closed down the last...)
e|-x-|-x-|-x-|-x-|
B|-x-|-x-|-0-|-0-|
G|-0-|-0-|-0-|-0-| play x8
D|-0-|-0-|-0-|-0-|
A|-x-|-2-|-2-|-2-|
E|-7-|-0-|-3-|-3-|


[chorus]

[verse 1]

[pre-chorus]

[chorus x2]

ĂŽnscrie-te la newsletter


Join the ranks ! LIKE us on Facebook