Nineteen Chords - Tegan And Sara




Title: Nineteen
Artist: Tegan and Sara
Album: The Con (2007)

Played with capo on the 5th fret. (Or on 4th for the live version)

Chords Used:
e|--0--|--0--|-----|-----|-----|-----|
B|--1--|--0--|--0--|--1--|--0--|--0--|
G|--0--|--0--|--0--|--0--|--0--|--0--|
D|--2--|--2--|--7--|--0--|--5--|--5--|
A|--3--|--2--|--5--|--2--|--3--|--2--|
E|-----|--0--|-----|--3--|-----|-----|
    C    Em   Gadd9 Cmaj9   C2   Em2

Verse I:
C | Em | Gadd9 | Gadd9 | x4
C | Em | Cmaj9 | Cmaj9 |
I felt you in my legs before I ever met you
And when I laid beside you for the first time I told you
I feel you in my heart and I don't even know you          
And now we're saying bye, bye, bye
Now we're saying bye, bye, bye

Chorus I: 
C2 | Em2 | Cmaj9 | Cmaj9 | x2
I was nineteen, calling

Verse II:
C | Em | Gadd9 | Gadd9 | x4
C | Em | Cmaj9 | Cmaj9 |
I felt you in my life before I ever thought to
Feel the need to lay down beside you and tell you
I feel you in my heart and I don't even know you
And now we're saying bye, bye, bye
Now we're saying bye, bye, bye

Chorus II:
C2 | Em2 | Cmaj9 | Cmaj9 | x4
I was nineteen, call me
I was nineteen, call me

Bridge:
e|-----------------------------------------------------------------|--|
B|-----0-------0-------0-------0-------0-------0-------1-------1---|--|
G|---0---0---0---0---0---0---0---0---0---0---0---0---0---0---0---0-|--|
D|-----------------------------------------------------------------|x2|
A|-7-------7-------5-------5-----------------------3-------3-------|--|
E|---------------------------------3-------3-----------------------|--|

e|-----------------------------------------------------------------|--|
B|-----0-------0-------1-------1-------0-------0-------0-------0---|--|
G|---0---0---0---0---0---0---0---0---0---0---0---0---0---0---0---0-|--|
D|-----------------------------------------------------------------|x2|
A|-2-------2-------3-------3---------------------------------------|--|
E|---------------------------------3-------3-------3-------3-------|--|

Flew home, back to where we met
Stayed inside I was so upset
Cooked up a plan so good except
I was all alone, you were all I had
Love you, you were all I had
Love me, I was yours right? 

Chorus III:
C2 | Em2 | Cmaj9 | Cmaj9 | x4
I was nineteen, call me
I was nineteen, call me

ĂŽnscrie-te la newsletter


Join the ranks ! LIKE us on Facebook