Not Tonight Tab - Tegan And Sara




-----------------------------------------------------------------------------
     Not Tonigt - Tegan And Sara
-----------------------------------------------------------------------------
Tabbed by:Deb
Email:dgerszo@hotmail.com

Tuning : Lower A string to G
EGDGBE

 Verse
E|----------------------|
B|-3-3-x-1-1-x-----x-3--|
G|-3-3-x-0-0-x-2-2-x-3--|
D|-3-3-x-1-1-x-1-1-x-3--|
G|-3-3-x-----x-2-2-x-3--|
E|----------------------|

Chorus
E|--------1--|
B|--------4--|
G|--3--2--3--|
D|--0--3--1--|
G|--0--2--0--|
E|-----------|

Verse again and end with the following chord

E|--3--|
B|--3--|
G|--3--|
D|--3--|
G|--3--|
E|-----|

Înscrie-te la newsletter


Join the ranks ! LIKE us on Facebook