Someday ver2 Tab - Tegan And Sara






-----------------------------------------------------------
                       SOMEDAY - Tegan & Sara
-----------------------------------------------------------


GUITAR 1
(TEGAN & TED)
standard tuning, capo 3

INTRO / FILLER
e|-------------------------------|
B|-------------------------------|
G|---6-------5------3------1-----|
D|---7--X16--6--X4--4--X4--2--X8-|X2
A|---0-------0------0------0-----|
E|-------------------------------|


VERSE
They yell speak up... / 
e|-------------------------------|
B|-------------------------------|
G|---6-------5------3------1-----|
D|---7--X16--6--X4--4--X4--2--X8-|X2
A|---0-------0------0------0-----|
E|-------------------------------|


CHORUS
Might paint something I might want to hang here someday...
e|---|
B|---|
G|-7-|(just keep strumming)
D|-7-|
A|-5-|
E|---|


INTRO / FILLER
e|-------------------------------|
B|-------------------------------|
G|---6-------5------3------1-----|
D|---7--X16--6--X4--4--X4--2--X8-|X2
A|---0-------0------0------0-----|
E|-------------------------------|


VERSE
They yell right on... 
e|-------------------------------|
B|-------------------------------|
G|---6-------5------3------1-----|
D|---7--X16--6--X4--4--X4--2--X8-|X4
A|---0-------0------0------0-----|
E|-------------------------------|


CHORUS
Might paint something I might want to hang here someday...
e|---|
B|---|
G|-7-|
D|-7-|
A|-5-|
E|---|


BRIDGE
I dont want to know that you dont want me...
only played in acoustic or stripped down version:
e|-2-|
B|-3-|
G|-2-|
D|-0-|
A|---|
E|---|


INTRO / FILLER
e|-------------------------------|
B|-------------------------------|
G|---6-------5------3------1-----|
D|---7--X16--6--X4--4--X4--2--X8-|X2
A|---0-------0------0------0-----|
E|-------------------------------|


CHORUS
Might paint something I might want to hang here someday...
e|---|
B|---|
G|-7-|
D|-7-|
A|-5-|
E|---| 
(if acoustic version, play nothing during the first repetition of the chorus)


when the BRIDGE and CHORUS overlap:
e|-------------------------------|
B|-------------------------------|
G|---6-------5------3------1-----|
D|---7--X16--6--X4--4--X4--2--X8-|X4
A|---0-------0------0------0-----|
E|-------------------------------|


GUITAR 2
(SARA)
standard tuning, no capo

CHORUS and BRIDGE:
e|------------------------------16-14--|
B|---15-17-13---------15-17-13---------|
G|------------14-12--------------------|
D|-------------------------------------|
A|-------------------------------------|
E|-------------------------------------|




************************************