Speak Slow Tab - Tegan And Sara




Tegan and Sara - Speak Slow

GUITAR 1
    intro/verse    chorus    interlude      bridge
|----------------|--------|-------------|-------------|
|----------------|--------|-------------|-------------|
|--13------------|--------|-------------|-------------|
|--13--13--6--8--|--6--6--|--13--9--11--|--13--10--8--|
|--11--13--6--8--|--6--6--|--13--9--11--|--13--10--8--|
|------11--4--6--|--4--3--|--11--7--9---|--11--8---6--| 

GUITAR 2
    verse part 1      verse part 2    chorus    interlude     bridge
|------------------|----------------|--------|-------------|-----------|
|------------------|----------------|--------|-------------|-----------|
|------------------|--13------------|--------|-------------|-----------|
|--18-18-18-14-13--|--13--13--6--8--|--6--6--|--13--9--11--|-13--10--8-|
|------------------|--11--13--6--8--|--6--6--|--13--9--11--|-13--10--8-|
|------------------|------11--4--6--|--4--3--|--11--7--9---|-11--8---6-|


Intro
Guitar 1 - x2
Verse
Guitar 1 - x4
Guitar 2 - part 1 - x2
   - part 2 - x2
Chorus
Guitar 1 - x2
Guitar 2 - x2 [different strumming]
Intro
Both guitars - x2
Verse
Guitar 1 - x4
Guitar 2 - part 1 - x2
   - part 2 - x2
Chorus
Guitar 1 - x4
Guitar 2 - x4 [different strumming]
Interlude
Both guitars - x2
Bridge [palm muted]
Guitar 1 - x2
Guitar 2 - x1 [comes in the second time guitar 1 plays it]
  [same strumming]
Intro
Guitar 1 - x2
Verse
Both guitars - x4
Chorus
Guitar 1 - x4
Guitar 2 - x4 [different strumming]
Interlude
Both guitars - x2
Intro
Guitar 1 - x2


uhh. yeah. sorry it's it hard to understand. questions or comments? just give me a
holler. =] oh. and by the way, this is the acoustic version they played on VH1 live.
pretty good stuff. have fun with it. laters.

ĂŽnscrie-te la newsletter


Join the ranks ! LIKE us on Facebook