Walking With A Ghost Tab - Tegan And Sara




This is my first tab, be nice.

without annoying x's (just for clearity):

e----9--9---10-10---12-12---12--10-|
B---10-10---10-10---12-12---12--10-|
G---11-11---11-11---13-13---13--11-|
D---11-11---12-12---14-14---14--12-|
A----9--9---12-12---14-14---14--12-|
E-----------10-10---12-12---12--10-|

with x's:

e----9--9--x-x--10-10--x-x--12-12--x-x--12--10-|
B---10-10--x-x--10-10--x-x--12-12--x-x--12--10-|
G---11-11--x-x--11-11--x-x--13-13--x-x--13--11-|
D---11-11--x-x--12-12--x-x--14-14--x-x--14--12-|
A----9--9--x-x--12-12--x-x--14-14--x-x--14--12-|
E----------x-x--10-10--x-x--12-12--x-x--12--10-|

These are the same parts, just the one with x's shows the damping.

If you listen to the song, the first chord isn't played instantly. Just strum down kinda 
to hear each string get hit.

That's it for the whole song.

ĂŽnscrie-te la newsletter


Join the ranks ! LIKE us on Facebook