When You Were Mine Tab - Tegan And Sara




Verse

e--------------------|
B--------------------|
G---7----------------|
D---7--7--5--7-------|
A---5--7--5--7-------|
E------5--3--5-------|

Chorus
(i know that you're....)

e---------------------|
B---------------------|
G---------------------|
D--5--7--4--5---------|
A--5--7--4--5---------|
E--3--5--2--3---------|


"I love you more than i did when you were mine"
e---------------------|
B---------------------|
G--------7------------|
D--5--7--7------------|
A--5--7--5------------|
E--3--5---------------|

it sounds better with palm mute

ĂŽnscrie-te la newsletter


Join the ranks ! LIKE us on Facebook