Papagenu Hes My Sassafrass Solo Tab - Tenacious D






I noticed that there was no solo on this site so i decided to post one


solo
e-----------------------------------------------------------------------|
B--------------------------------------------------15-15p12-------------|
G-14-12b--------------------------------------12-14--------14-12-14b-14-|
D--------12-12p10--10h12-12-12p10--12s14-12s14--------------------------|
A----------------12--------------12-------------------------------------|
E-----------------------------------------------------------------------|

e------------------------------------------------------------|
B----15b^^^^^^^^^^^^^^-12-13-13-13--10-12-12-12--12-12-12-10-|
G------------------------------------------------------------|
D------------------------------------------------------------|
A------------------------------------------------------------|
E------------------------------------------------------------|

 ^ = repeated bending and picking

ĂŽnscrie-te la newsletter


Like us on Facebook