Papagenu Hes My Sassafrass Tab - Tenacious D






Artist: Tenacious D
Song: Papagenu (He's My Sassafrass)

Intro:

E D6

E              D6
la la la       la la la
C              D          E
la la la       la la la
            D6
la la la la la la la la la la la la
C              D                        
la la la       la la la
                G
C'mon baby lets go

Flute Riff :
  G                            C   G      D 
e|-------------12--10-----------------------------10-12-10-----------|
B|------10-12----------10--12--13--12----10-12-13---------13-12-10---|
G|-12----------------------------------------------------------------|
D|-------------------------------------------------------------------|
A|-------------------------------------------------------------------|
E|-------------------------------------------------------------------|

   G                           C  G               D       G   C G
e|------------------------------------------------------------------|
B|------------------------------------------------------------------|
G|------------------------------------------------------------------|
D|----------9----9--9------9--10--9------9--------------------------|
A|-10---12-----------------------------------12---10--9--10---------|
E|------------------------------------------------------------------|


C             G             D           G     C G
ooh la la la, ooh papagenu, he's my papasass
ooh la la la, ooh papagenu, he's my sassafrass

Flute Riff

C             G             D           G     C G
ooh la la la, ooh papagenu, he's my papasass
ooh la la la, ooh papagenu, he's my sassafrass

JB: Wheeeee!
Sasquatch: We're flying!
JB: We're flying!
Sasquatch: Hold on boy!

Am              G            Bb             F 
Down where the Sasquatch hide, in the misty mountainside
Am              G                 Bb       F 
He's got shiny diamonds that he's got to protect
Am             G           Bb                   F 
Look into the Sasquatch eye, did you know that sass could fly
Am              G              Bb          F 
Sasquatch is my daddy and he's going to protect, me!
Half man and half machine, on the cover of a magazine
Bigfoot is my father and he's got to protect, me!
These lyrics don't make sense, think I've found the evidence
That yeti is my papa and he wants to protect, me!

Solo: Am  G  Bb   F

ĂŽnscrie-te la newsletter


Like us on Facebook