Electric Crown (ver2) Tab - Testament




Tune Down

F#||--------------|--------------------|-----------------------|
C#||--------------|--------------------|-----------------------|
G#||--------------|--------------------|-----------------------|
D#||--0--2--3--2--|------2--------2----|------2----0--2--3--2--|



--------------------|--------------|--------------------|
--------------------|--------------|--------------------|
------0------2------|--------------|--------------------|
--------------------|--0--2--3--2--|------2--------2----|



-----------------------|--------------------|--------------|
-----------------------|--------------------|--------------|
-----------------------|------2------5------|--------------|
------2----0--2--3--2--|--------------------|--0--2--3--2--|



----------------------|------------------------|----------------------|
----------------------|------------------------|----------------------|
----------------------|------------------------|--------0------2------|
------2----2--2--2----|--2--2--2----2--2--2----|--2--2----------------|



--------------|----------------------|-------------------------|
--------------|----------------------|-------------------------|
--------------|----------------------|-------------------------|
--0--2--3--2--|------2----2--2--2----|--2--2--2----0--2--3--2--|



--------------------------------|------------------|------------------|
--------------------------------|------------------|------------------|
------5------2------------------|------------------|------------------|
--------------------0--2--3--2--|------------------|------------------|



------------------|------------------|------------------|------------------|
------------------|------------------|------------------|------------------|
------------------|------------------|------------------|------------------|
------------------|------------------|------------------|------------------|



------------------|-----------------------|------------------------|
------------------|-----------------------|------------------------|
------------------|-----------------------|------------------------|
------------------|----------0--2--3-3-0--|--2--2----2--2----2--2--|



-------------------------|------------------------|--------------------------|
-------------------------|------------------------|--------------------------|
-------------------------|------------------------|--------------------------|
--0--2--2--2--2----2--2--|--2--2----2--2----2--2--|--2----2--2--0--2--3-3-0--|



------------------------|-------------------------|------------------------|
------------------------|-------------------------|------------------------|
------------------------|-------------------------|------------------------|
--2--2----2--2----2--2--|--0--2--2--2--2----2--2--|--2--2----2--2----2--2--|



--------------------|------------------------|-------------------------|
--------------------|------------------------|-------------------------|
--------------------|------------------------|-------------------------|
--2--2--------------|--2--2----2--2----2--2--|--0--2--2--2--2----2--2--|



------------------------|--------------------------|------------------------|
------------------------|--------------------------|------------------------|
------------------------|--------------------------|------------------------|
--2--2----2--2----2--2--|--2----2--2--2--2--3-3-0--|--2--2----2--2----2--2--|



-------------------------|------------------------|--------------------------|
-------------------------|------------------------|--------------------------|
-------------------------|------------------------|--------------------------|
--0--2--2--2--2----2--2--|--2--2----2--2----2--2--|--2----2--2--2--2--3-3-0--|



--------------------------|---------------------------|
--------------------------|---------------------------|
--------------------------|---------------------------|
--2--2--2--5--2--2--2--2--|--2--2--2--2--0--2--3-3-0--|



--------------------------|-------------------------|--------------------------|
--------------------------|-------------------------|--------------------------|
--------------------------|-------------------------|--------------------------|
--2--2--2--5--2--2--2--2--|--2--2--2--2--5----2--0--|--2--2--2--5--2--2--2--2--|



-------------------------|--------------------------|
-------------------------|--------------------------|
-------------------------|--------------------------|
--2--2--2--2--5----2--0--|--2--2--2--5--2--2--2--2--|



---------------------------|------------------------|------------------------|
---------------------------|------------------------|------------------------|
---------------------------|--0--0--0--0------2--2--|--2--2------------------|
--2--2--2--2--0--2--3-3-0--|------------------------|------------0--2--3--2--|



------------------------|-------------------------|------------------------|
------------------------|-------------------------|------------------------|
------------------------|-------------------------|------------------------|
--2--2----2--2----2--2--|--0--2--2--2--2----2--2--|--2--2----2--2----2--2--|



--------------------------|------------------------|-------------------------|
--------------------------|------------------------|-------------------------|
--------------------------|------------------------|-------------------------|
--2----2--2--2--2--3-3-0--|--2--2----2--2----2--2--|--0--2--2--2--2----2--2--|



------------------------|--------------------|------------------------|
------------------------|--------------------|------------------------|
------------------------|--------------------|------------------------|
--2--2----2--2----2--2--|--2--2--------------|--2--2----2--2----2--2--|



-------------------------|------------------------|--------------------------|
-------------------------|------------------------|--------------------------|
-------------------------|------------------------|--------------------------|
--0--2--2--2--2----2--2--|--2--2----2--2----2--2--|--2----2--2--2--2--3-3-0--|



------------------------|-------------------------|------------------------|
------------------------|-------------------------|------------------------|
------------------------|-------------------------|------------------------|
--2--2----2--2----2--2--|--0--2--2--2--2----2--2--|--2--2----2--2----2--2--|



--------------------------|--------------------------|
--------------------------|--------------------------|
--------------------------|-----------0--------------|
--2----2--2--2--2--3-3-0--|--2--2--2-----2--2--2--2--|



---------------------------|--------------------------|
---------------------------|--------------------------|
---------------------------|--------------------------|
--2--2--2--2--0--2--3-3-0--|--2--2--2--5--2--2--2--2--|



-------------------------|--------------------------|-------------------------|
-------------------------|--------------------------|-------------------------|
-------------------------|--------------------------|-------------------------|
--2--2--2--2--5----2--0--|--2--2--2--5--2--2--2--2--|--2--2--2--2--5----2--0--|



--------------------------|---------------------------|------------------------|
--------------------------|---------------------------|------------------------|
--------------------------|---------------------------|--0--0--0--0------2--2--|
--2--2--2--5--2--2--2--2--|--2--2--2--2--0--2--3-3-0--|------------------------|



------------------------|----------------------|-------------------------|
------------------------|----------------------|-------------------------|
--2--2------------------|----------------------|-------------------------|
------------0--2--3--2--|------2----2--2--2----|--2--2--2----0--2--3--2--|



-------------------|-----------------------|----------------------|
-------------------|-----------------------|----------------------|
------0------------|--2--------------------|----------------------|
-------------------|-----------0--2--3--2--|------2----2--2--2----|



-------------------------|-------------------|-----------------------|
-------------------------|-------------------|-----------------------|
-------------------------|------5------------|--2--------------------|
--2--2--2----0--2--3--2--|-------------------|-----------0--2--3--2--|



-----------------------|-------------------------|------------------------|
-----------------------|-------------------------|------------------------|
-----------------------|-------------------------|------------------------|
----2----2--2----2--2--|--0--2--2--2--2----2--2--|--2--2----2--2----2--2--|



--------------------------|------------------------|-------------------------|
--------------------------|------------------------|-------------------------|
--------------------------|------------------------|-------------------------|
--2----2--2--2--2--3-3-0--|--2--2----2--2----2--2--|--0--2--2--2--2----2--2--|



------------------------|--------------------|------------------------|
------------------------|--------------------|------------------------|
------------------------|--------------------|------------------------|
--2--2----2--2----2--2--|--2--2--------------|--2--2----2--2----2--2--|



-------------------------|------------------------|--------------------------|
-------------------------|------------------------|--------------------------|
-------------------------|------------------------|--------------------------|
--0--2--2--2--2----2--2--|--2--2----2--2----2--2--|--2----2--2--2--2--3-3-0--|



------------------------|-------------------------|------------------------|
------------------------|-------------------------|------------------------|
------------------------|-------------------------|------------------------|
--2--2----2--2----2--2--|--0--2--2--2--2----2--2--|--2--2----2--2----2--2--|



--------------------------|--------------------------|
--------------------------|--------------------------|
--------------------------|--------------------------|
--2----2--2--2--2--3-3-0--|--2--2--2--5--2--2--2--2--|



---------------------------|--------------------------|
---------------------------|--------------------------|
---------------------------|--------------------------|
--2--2--2--2--0--2--3-3-0--|--2--2--2--5--2--2--2--2--|



-------------------------|--------------------------|-------------------------|
-------------------------|--------------------------|-------------------------|
-------------------------|--------------------------|-------------------------|
--2--2--2--2--5----2--0--|--2--2--2--5--2--2--2--2--|--2--2--2--2--5----2--0--|



--------------------------|---------------------------|------------------------|
--------------------------|---------------------------|------------------------|
--------------------------|---------------------------|--0--0--0--0------2--2--|
--2--2--2--5--2--2--2--2--|--2--2--2--2--0--2--3-3-0--|------------------------|



------------------------|----------------------|-------------------------|
------------------------|----------------------|-------------------------|
--2--2------------------|----------------------|-------------------------|
------------0--2--3--2--|------2----2--2--2----|--2--2--2----0--2--3--2--|



-------------------|-----------------------|----------------------|
-------------------|-----------------------|----------------------|
------0------------|--2--------------------|----------------------|
-------------------|-----------0--2--3--2--|------2----2--2--2----|



-------------------------|-------------------|-----------------------|
-------------------------|-------------------|-----------------------|
-------------------------|------2------------|--5--------------------|
--2--2--2----0--2--3--2--|-------------------|-----------0--2--3--2--|



----------------------|-------------------------|-------------------|
----------------------|-------------------------|-------------------|
----------------------|-------------------------|------0------------|
------2----2--2--2----|--2--2--2----0--2--3--2--|-------------------|



-----------------------|----------------------|-------------------------|
-----------------------|----------------------|-------------------------|
--2--------------------|----------------------|-------------------------|
-----------0--2--3--2--|------2----2--2--2----|--2--2--2----0--2--3--2--|



-------------------|-----------------------|------------------|
-------------------|-----------------------|------------------|
------5------------|--2--------------------|------------------|
-------------------|-----------0--2--3--2--|------------------|



------------------|------------------|------------------|------------------|
------------------|------------------|------------------|------------------|
------------------|------------------|------------------|------------------|
------------------|------------------|------------------|------------------|



------------------|------------------|--------------------|
------------------|------------------|--------------------|
------------------|------------------|--------------------|
------------------|------------------|--2--2--------------|



------------------------|-------------------------|------------------------|
------------------------|-------------------------|------------------------|
------------------------|-------------------------|------------------------|
--2--2----2--2----2--2--|--0--2--2--2--2----2--2--|--2--2----2--2----2--2--|



--------------------------|------------------------|-------------------------|
--------------------------|------------------------|-------------------------|
--------------------------|------------------------|-------------------------|
--2----2--2--2--2--3-3-0--|--2--2----2--2----2--2--|--0--2--2--2--2----2--2--|



------------------------|--------------------------|--------------------------|
------------------------|--------------------------|--------------------------|
------------------------|--------------------------|--0--3--0--0--5--0--0--0--|
--2--2----2--2----2--2--|--2----2--2--2--2--3-3-0--|--------------------------|



--------------------------|--------------------------|
--------------------------|--------------------------|
--0--0--0--0--0--0--0--0--|--0--3--0--0--5--0--0-----|
--------------------------|-----------------------3--|



--------------------------|------------------------|-------------------------|
--------------------------|------------------------|-------------------------|
--0--0--0--0--0--0--0--0--|------------------------|-------------------------|
--------------------------|--2--2----2--2----2--2--|--0--2--2--2--2----2--2--|



------------------------|--------------------------|------------------------|
------------------------|--------------------------|------------------------|
------------------------|--------------------------|--0--0--0--0------2--2--|
--2--2----2--2----2--2--|--2----2--2--2--2--3-3-0--|------------------------|



------------------------|----------------------|-------------------------|
------------------------|----------------------|-------------------------|
--2--2------------------|----------------------|-------------------------|
------------0--2--3--2--|------2----2--2--2----|--2--2--2----0--2--3--2--|



-------------------|-----------------------|----------------------|
-------------------|-----------------------|----------------------|
------0------------|--2--------------------|----------------------|
-------------------|-----------0--2--3--2--|------2----2--2--2----|



-------------------------|-------------------|-----------------------|
-------------------------|-------------------|-----------------------|
-------------------------|------2------------|--5--------------------|
--2--2--2----0--2--3--2--|-------------------|-----------0--2--3--2--|



----------------------|-------------------------|-------------------|
----------------------|-------------------------|-------------------|
----------------------|-------------------------|------0------------|
------2----2--2--2----|--2--2--2----0--2--3--2--|-------------------|



-----------------------|----------------------|-------------------------|
-----------------------|----------------------|-------------------------|
--2--------------------|----------------------|-------------------------|
-----------0--2--3--2--|------2----2--2--2----|--2--2--2----0--2--3--2--|



-------------------|-----------------------|------------------------|
-------------------|-----------------------|------------------------|
------5------------|--2--------------------|------------------------|
-------------------|-----------0--2--3--2--|--2--2----2--2----2--2--|



-------------------------|------------------------|--------------------------|
-------------------------|------------------------|--------------------------|
-------------------------|------------------------|--------------------------|
--0--2--2--2--2----2--2--|--2--2----2--2----2--2--|--2----2--2--2--2--3-3-0--|



------------------------|-------------------------|------------------------|
------------------------|-------------------------|------------------------|
------------------------|-------------------------|------------------------|
--2--2----2--2----2--2--|--0--2--2--2--2----2--2--|--2--2----2--2----2--2--|



--------------------|------------------------|-------------------------|
--------------------|------------------------|-------------------------|
--------------------|------------------------|-------------------------|
--2--2--------------|--2--2----2--2----2--2--|--0--2--2--2--2----2--2--|



------------------------|--------------------------|------------------------|
------------------------|--------------------------|------------------------|
------------------------|--------------------------|------------------------|
--2--2----2--2----2--2--|--2----2--2--2--2--3-3-0--|--2--2----2--2----2--2--|



-------------------------|------------------------|--------------------------|
-------------------------|------------------------|--------------------------|
-------------------------|------------------------|--------------------------|
--0--2--2--2--2----2--2--|--2--2----2--2----2--2--|--2----2--2--2--2--3-3-0--|



--------------------------|---------------------------|
--------------------------|---------------------------|
--------------------------|---------------------------|
--2--2--2--5--2--2--2--2--|--2--2--2--2--0--2--3-3-0--|



--------------------------|-------------------------|--------------------------|
--------------------------|-------------------------|--------------------------|
--------------------------|-------------------------|--------------------------|
--2--2--2--5--2--2--2--2--|--2--2--2--2--5----2--0--|--2--2--2--5--2--2--2--2--|



-------------------------|--------------------------|
-------------------------|--------------------------|
-------------------------|--------------------------|
--2--2--2--2--5----2--0--|--2--2--2--5--2--2--2--2--|



---------------------------|------------------------|------------------------|
---------------------------|------------------------|------------------------|
---------------------------|--0--0--0--0------2--2--|--2--2------------------|
--2--2--2--2--0--2--3-3-0--|------------------------|------------0--2--3--2--|



----------------------|-------------------------|-------------------|
----------------------|-------------------------|-------------------|
----------------------|-------------------------|------0------------|
------2----2--2--2----|--2--2--2----0--2--3--2--|-------------------|



-----------------------|----------------------|-------------------------|
-----------------------|----------------------|-------------------------|
--2--------------------|----------------------|-------------------------|
-----------0--2--3--2--|------2----2--2--2----|--2--2--2----0--2--3--2--|



-------------------|-----------------------|----------------------|
-------------------|-----------------------|----------------------|
------2------------|--5--------------------|----------------------|
-------------------|-----------0--2--3--2--|------2----2--2--2----|



-------------------------|-------------------|-----------------------|
-------------------------|-------------------|-----------------------|
-------------------------|------0------------|--2--------------------|
--2--2--2----0--2--3--2--|-------------------|-----------0--2--3--2--|



----------------------|-------------------------|-------------------|
----------------------|-------------------------|-------------------|
----------------------|-------------------------|------5------------|
------2----2--2--2----|--2--2--2----0--2--3--2--|-------------------|



-----------------------|------------------------|-------------------------|
-----------------------|------------------------|-------------------------|
--2--------------------|------------------------|-------------------------|
-----------0--2--3--2--|--2--2----2--2----2--2--|--0--2--2--2--2----2--2--|



-------------------|-----------------------|------------------------|
-------------------|-----------------------|------------------------|
--5----------------|--2--------------------|------------------------|
-------------------|-----------0--2--3--2--|--2--2----2--2----2--2--|



-------------------------|-------------------|-----------------------|
-------------------------|-------------------|-----------------------|
-------------------------|--5----------------|--2--------------------|
--0--2--2--2--2----2--2--|-------------------|-----------0--2--3--2--|



------------------------|-------------------------|-------------------|
------------------------|-------------------------|-------------------|
------------------------|-------------------------|--5----------------|
--2--2----2--2----2--2--|--0--2--2--2--2----2--2--|-------------------|



-----------------------|-------------------------|--------------------------|
-----------------------|-------------------------|--------------------------|
--2--------------------|-------------------------|--------------------------|
-----------0--2--3--0--|----2--2--2--2--2--2--2--|--2--2--2--2--2--2--2--2--|



------------------||
------------------||
------------------||
------------------||

tabbed by Taz Mckell
ĂŽnscrie-te la newsletter


Join the ranks ! LIKE us on Facebook