Everything We Had (ver2) Tab - The Academy Is






Everything We Had by The Academy Is...

Its definitely one of my favourite song by them!
i saw michael chislett playing that alot of time..so trust this tab! ;)

My own cover is here on youtube:
http://www.youtube.com/watch?v=mosmarWNG74  
so if u think its innacurate ..post ur own 

Verse
E|----------------------------------|
B|----------------------------------|
G|---4---4---4---4---4--4---4---4---|
D|--4---4---4---4---4--4---4---4----|
A|-5---5-----------0--0-------------|
e|---------3---3----------3---3-----|


2nd part of verse
E|-----000------000------000--000-000--|
B|-----000------000------000--000-000--|
G|-444-444--444-444--444-444--444-444--|
D|-444-444--444-444--444-444--444-444--|
A|-555-555--xxx-xxx--000-000--xxx-xxx--|
e|----------333-333-----------333-333--|

Pre-Chorus

   Em D  G x2
E|-0--0--3-|
B|-0--3--3-|
G|-0--2--0-|
D|-2--0--0-|
A|-2-----x-|
e|-0-----3-|

Cmaj7 Asus A
E|-0-------|
B|-0--3--2-|
G|-0--2--2-|
D|-2--2--2-|
A|-3--0--0-|
e|---------|

Chorus
D D2 x2 Asus A x2
E|-2-0--0-0--|
B|-3-3--3-2--|
G|-2-2--2-2--|
D|-0-0--2-2--|
A|------0-0--|
e|-----------|

Bm Bm(?)x2 G  Gm
E|-2-2-----3--3-|
B|-3-2-----3--3-|
G|-4-4-----0--3-|
D|-4-4-----0--5-|
A|---------x--5-|
e|---------3----|

Back to verse
E|-10---9---5--|
B|-------------|
G|-------------|
D|-------------|
A|-------------|
e|-------------|

Pre-Chorus
Chorus

Bridge
Em G D x2
F# Em G

Verse
You were the only face I'd ever known
I was the light from the lamp on the floor
And only as bright as you wanted me to be
But, I am no gentleman, I can be a prick
And I do regret more than I admit

Pre-Chorus
You have been followed back to the same place
I sat with you drink for drink
Take the pain out of love and then love won't exist

Chorus
Everything we had, everything we had
Everything we had, everything we had
Is no longer there

Verse
It was the only place I'd never known
Turned off the light on my way out the door
I will be watching wherever you go
through the eyes of a fly on the wall

Bridge
You saw for yourself, the way it played out
For you, I am blinded
For you, I am blinded, for you

Interlude before going back to chorus
I am no gentleman, I can be a prick
And I do regret more than I admit
You have been followed back to the same place
I sat with you drink for drink
Take the pain out of love and then love won't exist

Chorus
Everything we had, everything we had
(You have been followed, you have been followed)
Everything we had, everything we had
(You have been followed, you have been followed)
Everything we had, everything we had
(You have been followed, you have been followed)
Everything we had...

Outro
I'll be with you wherever you go
through the eyes of a fly on the wall
E|-------------------------0---------|
B|-------------------------0---------|
G|---4---4---4---4---4--4--4---------|
D|--4---4---4---4---4--4---4---------|
A|-5---5-----------0--0--------------|
e|---------3---3-----------3---------|






Like us on Facebook