Everything We Had Tab - The Academy Is






artist: the academy is...
song: everything we had
album: santi

this is by far, my favorite song off the album!!

Verse:
theres a bunch of ways to play this, but i play it like this

e|-----0---0------------------------------------|
B|-----0---0------------------------------------|
G|-----4---4------------------------------------|
D|-----4---4------------------------------------|
A|-----5---0------------------------------------|
E|----------------------------------------------|


Pre-Chorus:
                            *
e|-----0---0--3-------------3--0--0~---------------|
B|-----0---3--3-------------3--3--0~---------------|
G|-----0---2--0----    -----0--2--2~---------------|
D|-----2---0--0---- 3x  ----2--2--2~---------------|
A|-----2---0--x----    -----3----------------------|
E|------------3------------------------------------|

on the second pre-chorus use:
3
1
0
2
3
x

instead of that cadd9

Chorus:

e|-----2-0-2-0---0-0--2-2-2-2--3------------------------|
B|-----3-3-3-3---3-0--3-2-3-2--3------------------------|
G|-----2-2-2-2---2-2--4-4-4-4--0------------------------|
D|-----0-0-0-0---2-2--4-4-4-4--0------------------------|
A|-----0-0-0-0---0-0-----------x------------------------|
E|-----------------------------3------------------------|

Bridge:

e|-----0---3--0--0--3--0--2---0--0~----------|
B|-----0---3--3--0--3--3--2---0--0~----------|
G|-----0---0--2--0--0--2--3---0--0~----------|
D|-----2---0-----2--0-----4---2--0~----------|
A|-----2---x-----2--x-----4---2--x-----------|
E|---------3--------3-----2------3~----------|


Then picking:

e|----------------------------------------------|
B|-------0----0---0---0---0---0---0---0---------|
G|----------------------------------------------|
D|------4----4---4---4---4---4---4---4----------|
A|-----5----5-----------0---0-------------------|
E|--------------3---3-----------3---3-----------|






Like us on Facebook