His Girl Friday Tab - The Academy Is






Tabbed by: Tom Watkins
Email: tomykins@hotmail.com

My first tab, any corrections, let me know please.

Intro

e|---------------------------------------------------------------|
B|---------------------------------------------------------------|
G|7777777-666666666-7777777-666666666-7777777-666666666-7777777--|
D|7777777-777777777-7777777-777777777-7777777-777777777-7777777--|
A|5555555-444444444-5555555-444444444-5555555-444444444-5555555--|
E|---------------------------------------------------------------|

e|---------------------------------------------------------------|
B|---------------------------------------------------------------|
G|666666666-7----------------------------------------------------|
D|777777777-7----------------------------------------------------|
A|444444444-5----------------------------------------------------|
E|---------------------------------------------------------------|

Verse 1

e|---------------------------------------------------------------|
B|---------------------------------------------------------------|
G|---------------------------------------------------------------|
D|---------------------------------------------------------------|
A|---------------------------------------------------------------|
E|---------------------------------------------------------------|

e|---------------------------------------------------------------|
B|---------------------------------------------------------------|
G|xx77----xx66----xx77----xx66-xx6x6-----------------------------|
D|xx77-x2-xx77-x2-xx77-x2-xx77-xx7x7-----------------------------|
A|xx55----xx44----xx55----xx44-xx4x4-----------------------------|
E|---------------------------------------------------------------|

Chorus

e|---------------------------------------------------------------|
B|---------------------------------------------------------------|
G||7777777777777-----------------------44444444------------------|
D||7777777777777-777-5555555555555-777-44444444-44444444---------|
A||5555555555555-777-5555555555555-777-22222222-44444444---------|
E|---------------555-3333333333333-555----------22222222---------|

e|---------------------------------------------------------------|
B|---------------------------------------------------------------|
G|----------------------77777777-99999999-1212121212121212-------|
D|5555555555555555|-----55555555-77777777-1010101010101010-------|
A|3333333333333333|-x2--55555555-77777777-1010101010101010-------|
E|3333333333333333|----------------------------------------------|

e|---------------------------------------------------------------|
B|---------------------------------------------------------------|
G|77777777-99999999-1212121212121212-7---------------------------|
D|55555555-77777777-1010101010101010-5---------------------------|
A|55555555-77777777-1010101010101010-5---------------------------|
E|---------------------------------------------------------------|

Verse 2 (same as verse 1)

Chorus

Solo

e|---------------------------------------------------------------|
B|---------------------------7-------------7-7-7-8-8-8-7-7-------|
G|4/7-7-4/7-7-4--4/7-7-4/7-7--4/7-7-4/7-4------------------------|
D|---------------------------------------------------------------|
A|---------------------------------------------------------------|
E|---------------------------------------------------------------|

e|---------------------------------------------10-10-9-9------------|
B|--------------------------7--7-7-7-7-7-7-7-7-----------10-10-7-7--|
G|4/7-7-4/7-7-4-4/7-7-4/7-7-----------------------------------------|
D|------------------------------------------------------------------|
A|------------------------------------------------------------------|
E|------------------------------------------------------------------|

Bridge

e|---------------------------------------------------------------|
B|---------------------------------------------------------------|
G|---------------------------------------------------------------|
D|---------------------------------------------------------------|
A|---------------------------------------------------------------|
E|---------------------------------------------------------------|

e|---------------------------------------------------------------|
B|---------------------------------------------------------------|
G|---------------------------------------------------------------|
D|444-555-7777777-7----------------------------------------------|
A|222-333-5555555-5----------------------------------------------|
E|222-333-5555555-5----------------------------------------------|

Chorus

Outro

e|---------------------------------------------------------------|
B|---------------------------------------------------------------|
G|7777777777777777------------------44444444---------------------|
D|5555555555555555-5555555555555555-22222222-44444444------------|
A|5555555555555555-3333333333333333-22222222-22222222------------|
E|-----------------3333333333333333----------22222222------------|

e|---------------------------------------------------------------|
B|---------------------------------------------------------------|
G|------------------5--------------------------------------------|
D|5555555555555555--5--------------------------------------------|
A|3333333333333333--3--------------------------------------------|
E|3333333333333333-----------------------------------------------|






Like us on Facebook