Neighbors Tab - The Academy Is






artist: the academy is...
song: neighbors
album: santi

this cd is very different from almost here, but its very good. this is all by ear so 
correct me if i'm wrong

Drop D

verse


e|-----------------------------------------------------------|
B|-----------------------------------------------------------|
G|----5-----5------------------------------------------------|
D|----5-----5------------------------------------------------|
A|----3-----3------------------------------------------------|
E|----------3------------------------------------------------|


Chorus

e|-----------------------------------------------------------|
B|-----------------------------------------------------------|
G|----5-----5-----7----5-------------------------------------|
D|----5-----5-----7----5-------------------------------------|
A|----3-----3-----5----3-------------------------------------|
E|----------3----------3-------------------------------------|

Bridge

I'm not to sure about this...just play around with that

e|-----------0-------------------------------------------------|
B|--------0----------------------------------------------------|
G|-------------------------------------------------------------|
D|-----5-------------------------------------------------------|
A|-------------------------------------------------------------|
E|-------------------------------------------------------------|






Like us on Facebook