Same Blood (ver2) Tab - The Academy Is






-------------------------------------------------|
                 Same Blood - The Academy is... -|
Tabbed by: Selisa1990
album: Santi


Intro
e|---------------|-------------------|
B|----66666666---|---5555-5555-------|
G|----99999999---|---9999-7777-------|   (4x)
D|---------------|-------------------|
A|---------------|-------------------|
E|---------------|-------------------|

Verse
e|---------------------------------------|
B|----33--33--333--3333-33-33-333--------|
G|----55--55--555--5555-55-55-555--------|  ...
D|---------------------------------------|
A|---------------------------------------|
E|---------------------------------------|


Chorus
e|---------------|-------------------|
B|----66666666---|---5555-5555-------|
G|----99999999---|---9999-7777-------|   (4x)
D|---------------|-------------------|
A|---------------|-------------------|
E|---------------|-------------------|


e|--------------------------------------------------------|
B|--------------------------------------------------13----|
G|---14-14-14------12-12-12-----14-14-14-----12--14-------|   (4x)
D|------------14------------14-----------14---------------|
A|--------------------------------------------------------|
E|--------------------------------------------------------|


verse

chorus


solo
e|--------------------------------------------|
B|--------------------------------------------|
G|---10-9-7------10-9-7---------------7-------|
D|----------10----------10----9--10-----------|
A|--------------------------------------------|
E|--------------------------------------------|

e|-------------------------------------------|
B|----------------------------8/12-----------|
G|---10-9-7------10-9-7----------------------|
D|----------10----------10-------------------|
A|-------------------------------------------|
E|-------------------------------------------|


Chorus

Solo


Ending
e|--------------------|
B|--------------------|
G|---10~--10~--10~----|
D|---10~--10~--10~----|
A|---8~---8~---8~-----|
E|--------------------|


Sisky 






Like us on Facebook