Season Bass Tab - The Academy Is






                      ________________________________
                     /   Seasons - The Academy Is...  
                    /__________________________________

Tabbed by: Brian
E-mail: cactaur1993@yahoo.com

Key:
~~~~~ = let the note ring

G|-------------------------------------------------------------------------|
D|-------------------------------------------------------------------------|
A|2---2-2-2-222---------------------2-2-2-222-2-2-2-222--------------------|
E|--------------3-3-3-333-0-0-3-3-3---------------------3-3-3-333-0-0-3-3-3|


G|-------------------------------------------------------------------------|
D|-------02-------02--------------------------02--------02-----------------|
A|2-2-2-2--2-2-2-2---------35-------35-2-2-2-2---2-2-2-2---------35--------|
E|------------------3-3-3-3--3-3-3-3----------------------3-3-3-3---3-3-3--|


G|-------------------------------------------------------------------------|
D|-------------------------------------------------------------------------|
A|5~~~~~~~~---------2~~~~~~~~0~~~~~~~~5~~~~~~~~---------2~~~~~~~~0~~~~~~~~-|
E|---------3~~~~~~~~---------------------------3~~~~~~~~-------------------|


G|-------------------------------------------------------------------------|
D|-------------------------------------------------------------------------|
A|2-----22-----2-----------------------------------------------------------|
E|-------------------------------------------------------------------------|


G|-------------------------------------------------------------------------|
D|-------------------------------------------------------------------------|
A|2-2-2-222-2-2-2-222------------------------------------------------------|
E|--------------------3-3-3-333-0-0-1-1-1----------------------------------|


G|-------------------------------------------------------------------------|
D|-------------------------------------------------------------------------|
A|2222222222222222------------------2222222222222222-----------------------|
E|-----------------3333333333333333------------------333333333~~~3333-3333-|


G|-------------------------------------------------------------------------|
D|-------------------------------------------------------------------------|
A|5~555-555-----------2~222-222-0~000-000-5~555-555-----------2~222-222-0~~|
E|----------3~333-333-------------------------------3~333-333--------------|


G|-------------------------------------------------------------------------|
D|-------------------------------------------------------------------------|
A|2--22-22----------------------------2--22-22-----------------------------|
E|---------5--55-55-0--00-00-3--33-33----------5--55-55-0--00-00-3--33-33--|


G|-------------------------------------------------------------------------|
D|-------------------------------------------------------------------------|
A|0~~~~~~~~~~~~~~~~~--------------------0~~~~~~~~~~~~~~~~~-2222222---------|
E|-------------------0~~~~~~~~~~~~~~~~~------------------------------------|


G|-------------------------------------------------------------------------|
D|-------------------------------------------------------------------------|
A|5~555-555-----------2~222-222-0~000-000-5~555-555-----------2~222-222-0~~|
E|----------3~333-333-------------------------------3~333-333--------------|


G|-------------------------------------------------------------------------|
D|-------------------------------------------------------------------------|
A|5~555-555-----------2~222-222-0~000-000-5~555-555-----------2~222-222-0~~|
E|----------3~333-333-------------------------------3~333-333--------------|


G|-------------------------------------------------------------------------|
D|-------------------------------------------------------------------------|
A|2-----22-----2-----------------------------------------------------------|
E|-------------------------------------------------------------------------|

I hope you enjoyed it! Please rate and comment :)






Like us on Facebook