Slow Down (ver2) Bass Tab - The Academy Is






Band: The Academy Is...
Song: Slow Down
By: Marcelo


Verse  (0:24)

G:--------------------------------------------|
D:--------------------------------------------|
A:-------2~--------5~-------------------------|
E:-1/7/1---------------------22-2-2--22-2-2-2-|

G:--------------------------------------|
D:--------------------------------------|
A:-2~--------5~-----------------------0-|
E:---------------------22-2-2--22-2-2---|

Pre-Chorus

G:----------------------------------------|
D:----------------------------------------|
A:-222-2-22--555-5-55--000-0-00-----------|
E:-------------------------------000-0-00-|


G:----------------------------------------|
D:----------------------------------------|
A:-222-2-22--555-5-55--000-0-00-----------|
E:-------------------------------0-000000-|

Chorus

G:-----------------------------------------|
D:-----------------------------------------|
A:-222222222-555555555-000000000-----------|
E:-------------------------------000000000-|

G:----------------------------------|
D:----------------------------------|
A:-222222222-555555555-000000000----|
E:-------------------------------0~-|

Verse

G:--------------------------------------|
D:--------------------------------------|
A:-2~-------/5~-------------------------|
E:---------------------22-2-2--22-2-2-2-|

G:----------------------------------|
D:----------------------------------|
A:-2~------/5






Like us on Facebook