Les Brers In A Minor (ver2) Tab - The Allman Brothers Band






Song: Les Brers In A Minor
Music By: The Allman Brothers Band
Album: Eat A Peach
Tabbed By: Mike aka Big Mac
Email: BigM42491@aol.com

Please Email me if you have any suggestions.

Standard Tuning


e|---6--8--9----8--9--11----9/8--p6--------------------------|
B|-6---------------------------------6-----------------------|
G|-----------------------------------------------------------|
D|-----------------------------------------------------------|
A|-----------------------------------------------------------|
E|-----------------------------------------------------------|


e|---6--8--9----8--9--11----9--11--16p13--13-----------------|
B|-6---------------------------------------------------------|
G|-----------------------------------------------------------|
D|-----------------------------------------------------------|
A|-----------------------------------------------------------|
E|-----------------------------------------------------------|


e|-13h16----18-18-16-16--------------------------------------|
B|----------------------18-18-16-16-14-14-13-13-11-11--------|
G|-----------------------------------------------------------|
D|-----------------------------------------------------------|
A|-----------------------------------------------------------|
E|-----------------------------------------------------------|

e|-----------------------------------------------------------|
B|-9h11--13--13/14------13--11-------------------------------|
G|------------------10---------------------------------------|
D|-----------------------------------------------------------|
A|-----------------------------------------------------------|
E|-----------------------------------------------------------|

ĂŽnscrie-te la newsletter


Like us on Facebook