Monster Tab - The Almost






MONSTER MONSTER THE ALMOST

Standard Tuning: EADGBe

INTRO:

-------------------------------------------------------|
-------------------------------------------------------|
-------------------------------------------------------|
--5--5-5---------15---15------------10-----------13----|
--3--3-3---------15---15----X3-----10---X8-----13X8---|
--3--3-3---------13---13-------------8-------------11--|


VERSE 1

---------------------------------------------------------|
---------------------------------------------------------|
------------------------------------------------------5--|
---5--------------------------2----------------------5---|
---3--------------------------2----------------------3---|
---3------------------------- -0-------------------------|
sick of drinking           ..tellin lies           .. youre just sick



------------------------------------------------------------------------|
------------------------------------------------------------------------|
------------------------------------------------------5--------------8--|
---5--------------------------2----------------------5--------------8---|
---3--------------------------2----------------------3--------------6---|
---3------------------------- -0----------------------------------------|
..what a bastard            ..stab                   ..i hope I can get home to you

PRE-CHORUS:
----------------------------------------------|
----------------------------------------------|
----------------------------------------------|
--5------------15----------10-----------13----|    x2
--3X8------15- X8-----10---X8-- --13-----X8--|
--3-------------13----------8------------11---|
whats the use in goin it alone?

--------------------------------------------------------|
--------------------------------------------------------|
--------------------------------------------------------|
--5------------15----------10---------- 12- --------13--|  x2
--3X4------15- X4-----10---X2-- - 10 x1----11x3------|
--3-------------13----------8------------10---------11--|
its you and me lets get out of this place..


CHORUS:

-------------------------------------------------------|
-------------------------------------------------------|
-------------------------------------------------------|
--5--5-5---------15---15------------10-----------13----|
--3--3-3---------15---15----X3-----10---X8-----13X8---|
--3--3-3---------13---13-------------8-------------11--|
Im sick of this monster monster, youve gotta get here, youve gotta get here
Im sick of this monster monster, youve gotta get here, youve gotta get here
Weve got to get out get out, before things get weird, before it gets weird
Weve got to get out get out, before it gets weirder..

VERSE 2:
*CLAPPING*
I have made an exit, and I have made a home. Among the throne, I have given in..

--------------------------------------------------------------|
--------------------------------------------------------------|
------------------------------------------------------5----8--|
---5--------------------------2----------------------5----6---|
---3--------------------------2----------------------3----6---|
---3------------------------- -0------------------------------|
I have given in..          ..this get any         ...worse


---------------------------------------------|
---------------------------------------------|
---------------------------------------------|
----------------------10--10------12----13---|
----------------------10--10------10----11---|
-----------------------8---8-------10----11--|
..can this get any worse?

CHORUS:

-------------------------------------------------------|
-------------------------------------------------------|
-------------------------------------------------------|
--5--5-5---------15---15------------10-----------13----|
--3--3-3---------15---15----X3-----10---X8-----13X8---|
--3--3-3---------13---13-------------8-------------11--|
Im sick of this monster monster, youve gotta get here, youve gotta get here
Im sick of this monster monster, youve gotta get here, youve gotta get here
Weve got to get out get out, before things get weird, before it gets weird
Weve got to get out get out, before it gets weirder..


BRIDGE:

--------------------------------------------------------|
--------------------------------------------------------|
--------------------------------------------------------|
--5------------15----------10---------- 12- --------13--|  x2
--3X4------15- X4-----10---X2-- - 10 x1----11x3------|
--3-------------13----------8------------10---------11--|

..Before it gets weirder----

SOLO:
I havent figured this part out yet because its a little bit difficult to hear.
Im gonna continue working on it though because I have a general idea of what the solo may be.
If anyone has tabbed this out you can e-mail me at:    hey-moon@live.com

FINAL CHORUS:   EVERYBODY!!
-------------------------------------------------------|
-------------------------------------------------------|
-------------------------------------------------------|
--5--5-5---------15---15------------10-----------13----|
--3--3-3---------15---15----X3-----10---X8-----13X8---|
--3--3-3---------13---13-------------8-------------11--|
Im sick of this monster monster, youve gotta get here, youve gotta get here
Im sick of this monster monster, youve gotta get here, youve gotta get here
Weve got to get out get out, before things get weird, before it gets weird
Weve got to get out get out, before it gets weirder..






Like us on Facebook