Beginings End Intro Tab - The Autumn Offering




iunno if i even spelt the song right but, w.e i just tabbed this like 2 seconds ago, its 
easy and a kick a*s song

intro/verse riff
|-------------------------------------------------------------------|
|-------------------------------------------------------------------|
|-------------------------------------------------------------------|
|-------------------------------------------------------------------| repeat
|-----7-----9-----10-----9-----7-7-----7-----9-----10-----9-----7~~-|   3
|-0-0---0-0---0-0----0-0---0-0-----0-0---0-0---0-0----0-0---0-0-----| times
pm. .   . .   . .    . .   . .     . .   . .   . .    . .   . .
|-------------------------------------------------------------------|
|-------------------------------------------------------------------|
|-------------------------------------------------------------------|
|-------------------------------------------------------------------|
|-----7-----9-----10-----9-----7-7-----7-----9-----9h10p9-7---7~~---|
|-0-0---0-0---0-0----0-0---0-0-----0-0---0-0---0-0----------0-------|
  . .   . .   . .    . .   . .     . .   . .   . .          .

pm and . mean palm mute

ĂŽnscrie-te la newsletter


Join the ranks ! LIKE us on Facebook