Bonds In Which We Break Intro Tab - The Autumn Offering




Atrist:The Autumn Offering
Title:Bonds In Which We Break
Intro Only
Tabbed By:Micheal Lakin and Tayler Franco
Drop C

Hammer=h
Slide Down=/

D|------------------------------------------------|
A|------------------------------------------------|
F|------------------------------------------------|
C|1-4h3-4h3-4h3-4h6-4-3---9-----------8-0-4/3-----|X1
G|1--------------------4--9-6-8-9-8-6-8-----------|
C|1-----------------------9-----------8-----------|

D|------------------------------------------------|
A|------------------------------------------------|
F|------------------------------------------------|
C|1-4h3-4h3-4h3-4h6-4-3---9--8--------------------|X1
G|1--------------------4--9--8--------------------|
C|1-----------------------9--8--------------------|

D|------------------------------------------------|
A|------------------------------------------------|
F|------------------------------------------------|
C|1-4h3-4h3-4h3-4h6-4-3---9-----------8-0-4/3-----| X7
G|1--------------------4--9-6-8-9-8-6-8-----------|
C|1-----------------------9-----------8-----------|

More to come......(maybe)

ĂŽnscrie-te la newsletter


Join the ranks ! LIKE us on Facebook