Embrace The Gutter Intro Tab - The Autumn Offering




-----------------------------------------------------------------------
     Embrace The Gutter  The Autumn Offering
-----------------------------------------------------------------------
Tabbed by: xXcriesinvainXx (Blake)
Email: Apocalypse674@aol.com

Tuning: Drop C CGCFAD

I got bored at like 3:30 one morning and figured this out I only got one of the guitars 
the duet deal at the end here I couldnt get both and Im not sure if that is completely right

|------------------------------------------------------------------------|
|------------------------------------------------------------------------|
|------------------------------------------------------------------------|
|0-----------------------8-----------------------10----------------------|
|0---7h8p78-10-12--12p8-8---7h8p7-8-10-12--12p8-10---7h8p7-8-10-12-12p8|
|0-00-----0-0-0-00-----8-00-----0-0-0-00-----10-00-----0-0-0-00----|
   xx     x x  x  xx       xx     x x  x  xx        xx     x x  x  xx

|-----------------------------------------|
|-----------------------------------------|
|7p---------------7-9h10p10---------------|
|--h10-10-10-10-10---------10-8-7---------|
|---------------------------------10p8-7p5|
|-----------------------------------------|
       x  x  x  x             x x


h = hammer on
p = pull off
x = palm mute

ĂŽnscrie-te la newsletter


Join the ranks ! LIKE us on Facebook