Embrace The Gutter Tab - The Autumn Offering




Band  Autumn Offering
Album  Embrace the Gutter
Song  Embrace the Gutter
Tabbed by  Ty B. and Bryan H.

Remember there are two guitars and one overdub playing sometimes.  These dudes play half
a lot so one guitar being played will sound like crap unless you have a buddy to jam
you and play the lower stuff.   Ive also separated witch guitar plays what by giving 
1 the harder or more higher pitched tabs(except on the solo, I  handed the 2nd solo to
2).

P.S. Dont waste your time trying to transfer these tabs to guitar pro.  I got it
already, I am just waiting for guitar pro 5 to come in the mail.

T  hand tap
* - palm mute
h  hammer on
p  pull off
~ - vibrato
/ - slide into or  pull whammy
 - whammy or slide down
b- bend
< - slow atack in


**INTRO**

Guitar 1

D|------------------------------------|
A|------------------------------------|
F|--------------------5---7----7------|
C|-0--0-0-7h8p7-0-8-0---0--0-0---8-7--|
G|-0--0-0-------0---0---0--0-0--------|
C|-0--0-0-------0---0---0--0-0--------|
|     * *       *   *   *  * *
|
|
|------------------------------------|
|------------------------------------|
|--------------------5---7----7------|
|-8--0-0-7h8p7-0-8-0---0--0-0---8-7--|
|-8--0-0-------0---0---0--0-0--------|
|-8--0-0-------0---0---0--0-0--------|
|    * *       *   *   *  * *
|
|
|--------------------------------------|
|--------------------------------------|
|---------------------5---7-----7------|
|-10--0-0-7h8p7-0-8-0---0---0-0---8-7--|
|-10--0-0-------0---0---0---0-0--------|
|-10--0-0-------0---0---0---0-0--------|
|    * *       *   *   *   * *
|
|---------------------------------------------|
|-10-11-10-8-6------11-13-11-10---------------|
|--------------7-10-------------12-10-5-7-5---|
|-------------------------------------------8-|
|---------------------------------------------|
|---------------------------------------------|


Guitar 2
|-----------------------------------|
|-----------------------------------|
|-----------------------------------|
|-0--0-0-------3--3-3--------8--8-8-|
|-0--0-0-------3--3-3--------8--8-8-|
|-0--0-0-------3--3-3--------8--8-8-|
* *   * *   * *

|------------------------------------|
|-6h8p6---------8-10-8-6-------------|
|-------8-7---7----------8-7---------|
|-----------8----------------7-8-7-5-|
|------------------------------------|
|------------------------------------|

**VERSE**

Guitar 1
|------------------------------------|
|------------------------------------|
|--------------------5---7----7------|
|-0--0-0-7h8p7-0-8-0---0--0-0---8-7--|
|-0--0-0-------0---0---0--0-0--------|
|-0--0-0-------0---0---0--0-0--------|
|     * *       *   *   *  * *
|
|
|------------------------------------|
|------------------------------------|
|--------------------5---7----7------|
|-3--0-0-7h8p7-0-8-0---0--0-0---8-7--|
|-3--0-0-------0---0---0--0-0--------|
|-3--0-0-------0---0---0--0-0--------|
|    * *       *   *   *  * *
|
|
|-------------------------------------|
|-------------------------------------|
|--------------------5---7-----7------|
|-8--0-0-7h8p7-0-8-0---0---0-0---8-7--|
|-8--0-0-------0---0---0---0-0--------|
|-8--0-0-------0---0---0---0-0--------|
|    * *       *   *   *   * *
|
|---------------------------------------------|
|-10-11-10-8-6------11-13-11-10---------------|
|--------------7-10-------------12-10-5-7-5---|
|-------------------------------------------8-|
|---------------------------------------------|
|---------------------------------------------|
            Repeat 1x

Guitar 2
|------------------------------------|
|------------------------------------|
|--------------------5---7----7------|
|-0--0-0-7h8p7-0-8-0---0--0-0---8-7--|
|-0--0-0-------0---0---0--0-0--------|
|-0--0-0-------0---0---0--0-0--------|
|    * *       *   *   *  * *
|
|
|------------------------------------|
|------------------------------------|
|--------------------5---7----7------|
|-3--0-0-7h8p7-0-8-0---0--0-0---8-7--|
|-3--0-0-------0---0---0--0-0--------|
|-3--0-0-------0---0---0--0-0--------|
|    * *       *   *   *  * *
|
|
|-------------------------------------|
|-------------------------------------|
|--------------------5---7-----7------|
|-8--0-0-7h8p7-0-8-0---0---0-0---8-7--|
|-8--0-0-------0---0---0---0-0--------|
|-8--0-0-------0---0---0---0-0--------|
|    * *       *   *   *   * *
|
|------------------------------------|
|-6-8-6---------8-10-8-6-------------|
|-------8-7---7----------8-7---------|
|-----------8----------------7-8-7-5-|
|------------------------------------|
|------------------------------------|
    Repeat 1x
**BRIDGE**

Guitar 1
|-----------------------------------|
|-----------------------------------|
|-----------------------------------|
|-0-0-0-0-5-7-5-7-3-3-3-3-5-7-5-7---|
|-0-0-0-0---------3-3-3-3-----------|
|-0-0-0-0---------3-3-3-3-----------|


|-------------------------------|
|-------------------------------|
|-------------------------------|
|-5-5-5-5-5-7-5-7-8-7--5--3-7---|
|-5-5-5-5---------8-7--5--3-7---|
|-5-5-5-5---------8-7--5--3-7---|


|-----------------------------------|
|-----------------------------------|
|-----------------------------------|
|-0-0-0-0-5-7-5-7-3-3-3-3-5-7-5-7---|
|-0-0-0-0---------3-3-3-3-----------|
|-0-0-0-0---------3-3-3-3-----------|

|-------------------------------|
|-------------------------------|
|-------------------------------|
|-5-5-5-5-5-7-5-7-10-8--7--5-8--|
|-5-5-5-5---------10-8--7--5-8--|
|-5-5-5-5---------10-8-7--5-8--|


|-----------------------------------|
|-----------------------------------|
|-----------------------------------|
|-0-0-0-0-5-7-5-7-3-3-3-3-5-7-5-7---|
|-0-0-0-0---------3-3-3-3-----------|
|-0-0-0-0---------3-3-3-3-----------|


|-------------------------------|
|-------------------------------|
|-------------------------------|
|-5-5-5-5-5-7-5-7-8-7--5--3-7---|
|-5-5-5-5---------8-7--5--3-7---|
|-5-5-5-5---------8-7--5--3-7---|


|-----------------------------------|
|-----------------------------------|
|-----------------------------------|
|-0-0-0-0-5-7-5-7-3-3-3-3-5-7-5-7---|
|-0-0-0-0---------3-3-3-3-----------|
|-0-0-0-0---------3-3-3-3-----------|

|--------------------------------|
|--------------------------------|
|--------------------------------|
|-5-5-5-5-5-7-5-7-10-8--7--5-10--|
|-5-5-5-5---------10-8--7--5-10--|
|-5-5-5-5---------10-8-7--5-10--|

Guitar 2
|-----------------------------------|
|-----------------------------------|
|-----------------------------------|
|-0-0-0-0---------3-3-3-3-----------|
|-0-0-0-0-7-8-7-8-3-3-3-3-7-8-7-8---|
|-0-0-0-0---------3-3-3-3-----------|


|-------------------------------|
|-------------------------------|
|-------------------------------|
|-5-5-5-5---------8-7--5--3-7---|
|-5-5-5-5-7-8-7-8-8-7--5--3-7---|
|-5-5-5-5---------8-7--5--3-7---|


|-----------------------------------|
|-----------------------------------|
|-----------------------------------|
|-0-0-0-0---------3-3-3-3-----------|
|-0-0-0-0-7-8-7-8-3-3-3-3-7-8-7-8---|
|-0-0-0-0---------3-3-3-3-----------|

|-------------------------------|
|-------------------------------|
|-------------------------------|
|-5-5-5-5---------10-8--7--5-8--|
|-5-5-5-5-7-8-7-8-10-8--7--5-8--|
|-5-5-5-5---------10-8-7--5-8--|


|-----------------------------------|
|-----------------------------------|
|-----------------------------------|
|-0-0-0-0---------3-3-3-3-----------|
|-0-0-0-0-7-8-7-8-3-3-3-3-7-8-7-8---|
|-0-0-0-0---------3-3-3-3-----------|


|-------------------------------|
|-------------------------------|
|-------------------------------|
|-5-5-5-5---------8-7--5--3-7---|
|-5-5-5-5-7-8-7-8-8-7--5--3-7---|
|-5-5-5-5---------8-7--5--3-7---|


|-----------------------------------|
|-----------------------------------|
|-----------------------------------|
|-0-0-0-0---------3-3-3-3-----------|
|-0-0-0-0-7-8-7-8-3-3-3-3-7-8-7-8---|
|-0-0-0-0---------3-3-3-3-----------|

|--------------------------------|
|--------------------------------|
|--------------------------------|
|-5-5-5-5---------10-8--7--5-10--|
|-5-5-5-5-7-8-7-8-10-8--7--5-10--|
|-5-5-5-5---------10-8-7--5-10--|

**CHORUS**

Guitar 1 & 2
|-------------------------------------|
|-------------------------------------|
|-------------------------------------|
|-0------3----------8-------7---------|
|-0------3----------8-------7---------|
|-0------3----------8-------7---------|

|----------------------------------------|
|----------------------------------------|
|----------------------------------------|
|-0------3----------8-------7--7--7--7---|
|-0------3----------8-------7--7--7--7---|
|-0------3----------8-------7--7--7--7---|


Guitar 1
|-------------------------------------|
|-------------------------------------|
|-------------------------------------|
|-0------3----------8-------7---------|
|-0------3----------8-------7---------|
|-0------3----------8-------7---------|

|----------------------------------------|
|----------------------------------------|
|----------------------------------------|
|-0------3----------8-------7--7--7--7---|
|-0------3----------8-------7--7--7--7---|
|-0------3----------8-------7--7--7--7---|


Guitar 2
|--------------------------------------------|
|--------------------------------------------|
|-10-10----10---------10-10----10--9-10-9----|
|-------12----12------------12---------------|
|--------------------------------------------|
|--------------------------------------------|


|------------------------------------|
|------------------------------------|
|-10-10-10-10----------12-----10-----|
|-------------12----14---------------|
|------------------------------------|
|------------------------------------|

**FILL**

Guitar 1
|------------------------------------|
|------------------------------------|
|--------------------5---7----7------|
|-0--0-0-7-8-7-0-8-0---0--0-0---8-7--|
|-0--0-0-------0---0---0--0-0--------|
|-0--0-0-------0---0---0--0-0--------|
     * *       *   *   *  * *


|-----------------------------|
|-----------------------------|
|-----------------------------|
|-3--0-0-7-8-7-0--------------|
|-3--0-0-------0----

ĂŽnscrie-te la newsletter


Join the ranks ! LIKE us on Facebook