Revelation Intro Tab - The Autumn Offering




Here's the intro and first part of the song
maybe somebody can finish it..?






 

Gtr I (C G C F A D) - 'Untitled'
Gtr II (C G C F A D) - 'Untitled'


in the intro, guitar two has to hold the chord and let it ring while you
pick the three notes

guitar one is just really fast strumming


  Q=150
 4/4
  Gtr I
  S  S S S S S S S S S S S  S  S S S    S  S  S  S S S S S  S  S S S S S S S
|------------------------------------|----------------------------------------|
|-8--8-8-8-8-8-8-8-8-8-8-8--8--8-8-8-|--8--8--8--8-8-8-8-8--8--8-8-8-8-8-8-8--|
|------------------------------------|----------------------------------------|
|-5--5-5-5-5-5-5-5-5-5-5-5--5--5-5-5-|--5--5--5--5-5-5-5-5--5--5-5-5-5-5-5-5--|
|------------------------------------|----------------------------------------|
|------------------------------------|----------------------------------------|
|
| Gtr II
| H.                        Q           E     Q.            Q        E   E
|---------------------------5--------|-(5)------------------------------------|
|------------------------------------|--------8-------------------------------|
|------------------------------------|----------------------7-----------------|
|-5------------------------(5)-------|-(5)---(5)-----------(5)----------------|
|-5------------------------(5)-------|-(5)---(5)-----------(5)-------5---5----|
|-5------------------------(5)-------|-(5)---(5)-----------(5)-------5---5----|


  S  S S S S S S S S S S S S S S S    S  S S S S S S S S S S S S S S S
|-6--6-6-6-6-6-6-6-6-6-6-6-5-5-5-5-|--5--5-5-5-5-5-5-5-5-5-5-5-5-5-5-5---|
|-6--6-6-6-6-6-6-6-6-6-6-6-6-6-6-6-|--6--6-6-6-6-6-6-6-6-6-6-6-6-6-6-6---|
|----------------------------------|-------------------------------------|
|-3--3-3-3-3-3-3-3-3-3-3-3-3-3-3-3-|--3--3-3-3-3-3-3-3-3-3-3-3-3-3-3-3---|
|----------------------------------|-------------------------------------|
|----------------------------------|-------------------------------------|
|
| H.                       Q         +W
|----------------------------------|-------------------------------------|
|----------------------------------|-------------------------------------|
|----------------------------------|-------------------------------------|
|-8------------------------3-------|-(3)---------------------------------|
|-8------------------------3-------|-(3)---------------------------------|
|-8------------------------3-------|-(3)---------------------------------|


  Q=150
 4/4
  Gtr I
  S  S S S S S S S S S S S  S  S S S    S  S  S  S S S S S  S  S S S S S S S
|------------------------------------|----------------------------------------|
|-8--8-8-8-8-8-8-8-8-8-8-8--8--8-8-8-|--8--8--8--8-8-8-8-8--8--8-8-8-8-8-8-8--|
|------------------------------------|----------------------------------------|
|-5--5-5-5-5-5-5-5-5-5-5-5--5--5-5-5-|--5--5--5--5-5-5-5-5--5--5-5-5-5-5-5-5--|
|------------------------------------|----------------------------------------|
|------------------------------------|----------------------------------------|
|
| Gtr II
| H.                        Q           E     Q.            Q        E   E
|---------------------------5--------|-(5)------------------------------------|
|------------------------------------|--------8-------------------------------|
|------------------------------------|----------------------7-----------------|
|-5------------------------(5)-------|-(5)---(5)-----------(5)----------------|
|-5------------------------(5)-------|-(5)---(5)-----------(5)-------5---5----|
|-5------------------------(5)-------|-(5)---(5)-----------(5)-------5---5----|


  S  S S S S S S S S S S S S S E    E  S S E  E  E  Q.
|-6--6-6-6-6-6-6-6-6-6-6-6--------|-----------------------|
|-6--6-6-6-6-6-6-6-6-6-6-6--------|-----------------------|
|---------------------------------|-----------------------|
|-3--3-3-3-3-3-3-3-3-3-3-3--------|--------------3--------|
|--------------------------3-3-3--|----3-3-3-----3--------|
|--------------------------3-3-3--|----3-3-3-----3--------|
|
| H.                       S S E    E  S S E  E  E  Q.
|---------------------------------|-----------------------|
|---------------------------------|-----------------------|
|---------------------------------|-----------------------|
|-8-------------------------------|--------------3--------|
|-8------------------------3-3-3--|----3-3-3-----3--------|
|-8------------------------3-3-3--|----3-3-3-----3--------|


and then the verse part:

  Q=208
  Q  E E E E E E   E E E E E E E E   Q  E E E E E E   Q  E E E E E E
|----------------|-----------------|----------------|----------------|
|----------------|-----------------|----------------|----------------|
|----------------|-7-------5-------|----------------|----------3-----|
|------7---8-5---|-----8-------7---|------5---3-5---|------3-5---5-3-|
|-5--------------|-----------------|-1--------------|-3--5-----------|
|-5--5---5-----5-|---5---5---5---5-|-1--1---1-----1-|-3--------------|
|
| Q  Q   Q   Q     Q   Q   Q   Q     W                W
|----------------|-----------------|----------------|----------------|
|----------------|-----------------|----------------|----------------|
|----------------|-----------------|----------------|----------------|
|----------------|-----------------|----------------|----------------|
|-5--------------|-----------------|-1--------------|-3--------------|
|-5--------------|-----------------|-1--------------|-3--------------|


  Q  E E E E E E   E E E E E E E E   Q  E E E E E E   Q  E E E E E E
|----------------|-----------------|----------------|----------------|
|----------------|-----------------|----------------|----------------|
|----------------|-7-------5-------|----------------|----------3-----|
|------7---8-5---|-----8-------7---|------5---3-5---|------3-5---5-3-|
|-5--------------|-----------------|-1--------------|-3--5-----------|
|-5--5---5-----5-|---5---5---5---5-|-1--1---1-----1-|-3--------------|
|
| Q  E E E E E E   E E E E E E E E   Q  E E E E E E   Q  E E E E E E
|----------------|-----------------|----------------|----------------|
|----------------|-6---------------|----------------|----------3-----|
|------5---7-----|-----7---8---5---|------3---2-3---|------3-5---5---|
|------------8---|-----------------|----------------|----3---------7-|
|-5--------------|-----------------|-1--------------|-3--------------|
|-5--5---5-----5-|---5---5---5---5-|-1--1---1-----1-|-3--------------|


  Q  E E E E E E   E E E E E E E E   Q  E E E E E E   Q  E E E E E E
|----------------|-----------------|----------------|----------------|
|----------------|-----------------|----------------|----------------|
|----------------|-7-------5-------|----------------|----------3-----|
|------7---8-5---|-----8-------7---|------5---3-5---|------3-5---5-3-|
|-5--------------|-----------------|-1--------------|-3--5-----------|
|-5--5---5-----5-|---5---5---5---5-|-1--1---1-----1-|-3--------------|
|
| Q  E E E E E E   E E E E E E E E   Q  E E E E E E   Q  E E E E E E
|----------------|-----------------|----------------|----------------|
|----------------|-----------------|----------------|----------------|
|----------------|-7-------5-------|----------------|----------3-----|
|------7---8-5---|-----8-------7---|------5---3-5---|------3-5---5-3-|
|-5--------------|-----------------|-1--------------|-3--5-----------|
|-5--5---5-----5-|---5---5---5---5-|-1--1---1-----1-|-3--------------|


  Q  E E E E E E   E E E E E E E E   Q  E E E E E E   Q  E E H
|----------------|-----------------|----------------|-------------|
|----------------|-----------------|----------------|-------------|
|----------------|-7-------5-------|----------------|--------3----|
|------7---8-5---|-----8-------7---|------5---3-5---|----3-5------|
|-5--------------|-----------------|-1--------------|-3-----------|
|-5--5---5-----5-|---5---5---5---5-|-1--1---1-----1-|-3-----------|
|
| Q  E E E E E E   E E E E E E E E   Q  E E E E E E   Q  E E H
|----------------|-----------------|----------------|-------------|
|----------------|-6---------------|----------------|--------3----|
|------5---7-----|-----7---8---5---|------3---2-3---|----3-5------|
|------------8---|-----------------|----------------|-------------|
|-5--------------|-----------------|-1--------------|-3-----------|
|-5--5---5-----5-|---5---5---5---5-|-1--1---1-----1-|-3-----------|


that's as far as i can get

ewlord-1492@hotmail.com 

--------------------------------------------------------------------------------


Duration Legend
---------------
W - whole; H - half; Q - quarter; E - 8th; S - 16th; T - 32nd; X - 64th; a - acciaccatura
+ - note tied to previous; . - note dotted; .. - note double dotted
Uncapitalized letters represent notes that are staccato (1/2 duration)
Irregular groupings are notated above the duration line
Duration letters will always appear directly above the note/fret number it represents the
duration for.  Duration letters with no fret number below them represent rests.  Multi-
bar rests are notated in the form Wxn, where n is the number of bars to rest for.  Low
melody durations appear below the staff

Tablature Legend
----------------
 h   - hammer-on
 p   - pull-off
 b   - bend
 pb  - pre-bend
 r   - bend release (if no number after the r, then release immediately)
 /  - slide into or out of (from/to "nowhere")
 s   - legato slide
 S   - shift slide
 - natural harmonic
[n]  - artificial harmonic
n(n) - tapped harmonic
 ~   - vibrato
 tr  - trill
 T   - tap
 TP  - trem. picking
 PM  - palm muting
n/  - tremolo bar dip; n = amount to dip
 n  - tremolo bar down
 n/  - tremolo bar up
/n  - tremolo bar inverted dip
 =   - hold bend; also acts as connecting device for hammers/pulls
  - volume swell (louder/softer)
 x   - on rhythm slash represents muted slash
 o   - on rhythm slash represents single note slash

Misc Legend
-----------
 |  - bar
||  - double bar
||o - repeat start
o|| - repeat end
*|  - double bar (ending)
 :  - bar (freetime)
 $  - Segno
 &  - Coda
Tempo markers -  = BPM(8/16=s8/s16), where s8 = swing 8ths, s16 = swing 16ths



--------------------------------------------------------------------------------

** Generated using Power Tab Editor by Brad Larsen: The Official Power Tab Web Site

ĂŽnscrie-te la newsletter


Join the ranks ! LIKE us on Facebook