Laundry Room Tab - The Avett Brothers




Artist: The Avett Brothers
Song: Laundry Room
Album: I and Love and You
Tabbed by: Don Tago
Email: recebedou@yahoo.com



Standard Tuning [Capo IV]

Chords used:
   EADGBe
C: 032010
G: 320003


Intro tabs & chords:
Line 1:
    G
e|------------------------------------|
B|------------------------------------|
G|------------0---2---0-------0---0---| then,
D|----0---2---------------2-----------|
A|------------------------------------|
E|--3---3---3---3---3---3---3---3-----|

Line 2:
    G             C              G
e|--------------------------------------------------------------|
B|------0-------------1---------------0-----0-----0-------------|
G|---------0---0---------0---0------0---0-----0-----0-----------|
D|----0------0------2------2------------------------------------|
A|----------------3---------------------------------------------|
E|--3----------------------------3--------3-----3------0-2-3----|



Verse 1 tab & chords
Line 3:
    G             C              G
e|--------------------------------------------------------------|
B|------0-------------1---------------0-----0-----0-------------|
G|---------0---0---------0---0------0---0-----0-----0-----------|
D|----0------0------2------2------------------------------------| then,
A|----------------3---------------------------------------------|
E|--3----------------------------3--------3-----3------0-2-3----|

Line 4:
    G             C              G
e|---------------------------------------------------------------|
B|------0-------------1---------------0-----0--------------------|
G|---------0---0---------0---0------0---0-----0-----0---0---0----|
D|----0------0------2------2-------------------------------------| then,
A|----------------3-----------------------------------0---2------|
E|--3----------------------------3--------3-------3--------------|

Line 5:
   C
e|-------------------------------------------------------|
B|-----1------------1------------0------------0----------|
G|---0----0---0---0----0---0---0----0---0---0----0---0---|
D|----------2------------2------------2------------2-----|then, [play Line 3]
A|-3------------3------------3------------3--------------|
E|-------------------------------------------------------|


Verse 2 tab & chords:

-play Line 3, then
-play Line 4, then
-play Line 5, then
-play Line 4, then

Line 6:
    G             C              G
e|----------------------------------------------------------------------------|
B|------0-------------1---------------0-----0---------------------------------|
G|---------0---0---------0---0------0---0-----0------------0---2---0-------0--|
D|----0------0------2------2-----------------------0---2---------------2------|then, 
A|----------------3-----------------------------------------------------------|
E|--3----------------------------3--------3------3---3---3---3---3---3---3----|


Line 7:
    G
e|-------------------------------|
B|-------0-----0-----0-----------|
G|-----0---0-----0-----0---------|
D|-------------------------------|
A|-------------------------------|
E|--3--------3-----3-------0-2-3-|


Verse 3 chords & tabs:

-play Line 3, then
-play Line 4, then
-play Line 5, then
-play Line 4, then
-play Line 3


Verse 4 chords & tabs: 

-play Line 3, then
-play Line 4, then
-play Line 5, then
-play Line 4, then
-play Line 6, then

Line 8:
  
e|----------------------------------3---5---3-------3---3----------------------------|
B|------0-----0-----0-------3---5---------------5--------------0-----0-----0---------|
G|----0---0-----0-----0---0---0---0---0---0---0---0---0------0---0-----0-----0-------|
D|-----------------------------------------------------------------------------------|
A|-----------------------------------------------------------------------------------|
E|--3-------3-----3----------------------------------------3-------3-----3-----0-2-3-|


Bridge chords & tabs:

-play Line 3, repeat 9x


Outro:
Line 9:
   G
e|---------------------------------------------------------|
B|---------------------------------------------------------|
G|---0---0---0---0---0---0---0---0--0---0--0--0---0--0--0--|
D|--0h2-2/4-4/5-5/4-4/2-2/4-4h5-5p4-0---0-0h2-0---0-0h2-0--| [play 2x] then,
A|---------------------------------------------------------|
E|---------------------------------------------------------|

Line 10:
    G
e|---------------------------------------------------------|
B|---------------------------------------------------------|
G|---0---0---0---0---0---0---0---0--0---0--0--0---0--0-0---|
D|--0h2-2/4-4/5-5/9-9/7-7/5-4h5-5p4-0---0-0h2-0---0-0h2-0--| then,
A|---------------------------------------------------------|
E|---------------------------------------------------------|

-then repeat Lines 9 and 10 to end

============================================================================

Lyrics and chord structure


Verse 1 chords:
G     C       G           C      G
Don't push me out, just a little longer
C                                           G
  Stall your mother, disregard your fathers words


Verse 2 chords:
G         C       G            C          G
Close the laundry door, tiptoe across the floor
C                                            G
  Keep your clothes on, I got all that I can take
C                                                  G
  Teach me how to use the love that people say you made


Verse 3: [same as verse 2]
Stop your parents car, I just thought youd ignore
We can wish upon it
but we wont share the wish we made
But i cant keep no secrets
I wish that you would always stay 


Verse 4: [same as verse 2]
Last night I dreamt the whole night long
I woke with a head full of songs
I spent the whole day
I wrote em down but its a shame
Tonight Ill burn the lyrics, cause every chorus was your name

Bridge:
G           C         G
Break this tired old routine
G        C                  G
and this time dont make me leave
G       C             G
I am a breathing time machine
G            C        G
Ill take you on for a ride

ĂŽnscrie-te la newsletter

Join the ranks ! LIKE us on Facebook