Souls Like The Wheels Intro Tab - The Avett Brothers




-----------------------------------------------------------------------------
Souls Like The Wheels (Intro)  The Avett Brothers
-----------------------------------------------------------------------------
Tabbed by: Matt
Email: msommer21@gmail.com

Tuning: Capo 2

e|-----------0-----------8-------8-7---------7-----3-----2---3-----2-----2--|
B|-0-3---3-------0/7---------7-------5---7-------5---2-----------2---0------|
G|--------------------------------------------------------------------------|
D|---------------------0-------0-------0-------0-------0-------0-------0----|
A|-----------0--------------------------------------------------------------|
E|-0-----3------------------------------------------------------------------|

e|-------8---------------7---------7-----3-----2---3-----2------------------|
B|-0-----------7-----------5---7-------5---2-----------2-0------------------|
G|-------------------------------------------------------3------------------|
D|---0-------0-------0-------0-------0-------0-------0---0------------------|
A|--------------------------------------------------------------------------|
E|--------------------------------------------------------------------------|

You won't be able to play the low repeating E with this tab because of the capo, but 
else should be right (I think I got the final chord right, but if anyone knows for sure I 
change it).

************************************

| /   slide up
|    slide down
| h   hammer-on
| p   pull-off
| ~   vibrato
| +   harmonic
| x   Mute note
| b   Bend
| pb  Pre-bend
| br  Bend release
| pbr Pre-bend release
| brb Bend release bend

************************************

ĂŽnscrie-te la newsletter

Join the ranks ! LIKE us on Facebook