Blue (ver2) Tab - The Birthday Massacre




The Birthday Massacre
Blue
From the album "Violet"

tunning drop d (DADGBE)


main riff:
e|------------------------------------|
B|------------------------------------|
G|------------------------------------|
D|--0-0---0-0-0-0-0---0-0-0---6-0-6---|
A|--0-0---0-0-0-0-0---0-0-0---6-0-6---|
D|--0-0---0-0-0-0-0---0-0-0---6-0-6---|
    p p   p p p p p   p p p   p p p

e|------------------------------------|
B|------------------------------------|
G|------------------------------------|
D|--3-3---3-3-3-3-3---3-3-3---6-0-6---|
A|--3-3---3-3-3-3-3---3-3-3---6-0-6---|
D|--3-3---3-3-3-3-3---3-3-3---6-0-6---|
    p p   p p p p p   p p p   p p p


break (2:50)
e|--------------------------------------------------------------------|
B|------3-------6-----------------------------------------------------|
G|----2---2---5---5-----5-------3---------------3-------5-------3-----|
D|--0-------3---------5---5---3---3-----3-----3---3---5---5---3---3---|
A|------------------3-------1---------3---3-1-------3-------1---------|
D|----------------------------------3---------------------------------|


solo guitar (3:38)
e|--------------------------------------------------------|
B|--------------------------------------------------------|
G|--------------------------------------------------------|
D|-------------------------------------------------6^6----|
A|--------/6-6-3^--1-0-1-/5-5----------5-5-5--6-6---------|
D|--0-0-0------------------------0-0-0--------------------|
    p p                          p p


this song is 100% accurate
enjoy playing this awesome (and easy) song
tabbed by javi_twiggy
ĂŽnscrie-te la newsletter


Join the ranks ! LIKE us on Facebook