Blue Tab - The Birthday Massacre




====the=============
Birthday massacre===== 
SONG:Blue===============

TABBED BY:CHINO(JOSE MURILLO)

tuning:DGCFAd


intro:
---------------------------------------------------------------|
---------------------------------------------------------------|
---------------------------------------------------------------|
--22-22222-32222-22222--323-55-55555-32355-55555---------------|
--22-22222-12122-22222--121-55-55555-12155-55555---------------|
--00-00000--0-00-00000---0--33-33333--0-33-33333---------------|X2
pm.. ......   .. ......     ........    ........

1st time end with:

----------|
----------|
----------|
--323-----|
--121-----|
---0------|

  ^
basically the whole song--1


then it goes:

-----------------       -------------------------|
-----------------       -------------------------|
-----------------       -------------------------|
-222222225222323-       55-55555-32355-55555-323-|
-222222225222121-       55-55555-12155-55555-121-|
-000000003000-0--{2X)   33-33333--0-33-33333--0--|(2X)
pm....... ...           .. .....    .. .....
  

------------------------------------------------------------------|
------------------------------------------------------------------|
------------------------------------------------------------------|
--22-22222-32222-22222--323-55-55555-32355-55555-323--------------|
--22-22222-12122-22222--121-55-55555-12155-55555-121--------------|
--00-00000--0-00-00000---0--33-33333--0-33-33333--0---------------|(4X)
pm.. ......   .. ......     ........    ........

end with:

----------|
----------|
----------|
--323-----|
--121-----|
---0------|


ANY PROBS OR FIXES CONTACT ME AT:MURILLO275@HOTMAIL.COM 
0R GO TO MYSPACE.COM/CHINO7666 

ĂŽnscrie-te la newsletter


Join the ranks ! LIKE us on Facebook