First Time For Everything Acoustic Intro Tab - The Birthday Massacre




-------------------------------------------------------------------------------
     First Time For Everything - Five Times August
------------------------------------------------------------------------------- Hey
this is my very first tab and i wanted to make it simple. I want to work on this song some
but im preety sure i have the intro down. The rest of the song is all cords. If you have 
this song played in acoustic, then you will know how brad plays it.


Capo on 1st fret

Tabbed by:Chrispy17325
Email:Chrispy17325@aol.com

Tuning:Normal

e|-----0--0-------0-0-0-0-0-0-0-0-0-0-0---0-0-0-0-0-0-0-0-0-0-0-|
B|-----5--5-------5-5-5-0-0-5-5-0-0-5-5---5-5-5-0-0-5-5-0-0-5-5-|
G|-----6--6-------7-6-6-6-6-6-6-6-6-6-6---7-6-6-6-6-6-6-6-6-6-6-|
D|-----7--7-------7-7-7-7-7-7-7-7-7-7-7---7-7-7-7-7-7-7-7-7-7-7-|
A|-----0--0-------0-0-0-0-0-0-0-0-0-0-0---0-0-0-0-0-0-0-0-0-0-0-|
E|--------------------------------------------------------------|

e|--0-0-0-0-0-0-0-------0---0-0-0------0---0-0-0-0-0-0-0-|
B|--5-5-5-0-0-5-5-------3---3-3-3------0---0-0-0-0-0-0-0-|
G|--7-6-6-6-6-6-6-------4---4-4-4------1---1-1-1-2-2-1-1-| Repeat x2
D|--7-7-7-7-7-7-7-------4---4-4-4------2---2-2-2-2-2-2-2-|
A|--0-0-0-0-0-0-0-------0---0-0-0------2---2-2-2-2-2-2-2-|
E|-------------------------------------0---0-0-0-0-0-0-0-|


| /  slide up
|   slide down
| h  hammer-on
| p  pull-off
| ~  vibrato
| +  harmonic
| x  Mute note
===============================================================================
ĂŽnscrie-te la newsletter


Join the ranks ! LIKE us on Facebook