Holiday Tab - The Birthday Massacre




Intro/Chorus.  (The verses have no guitar)
E|--------------------------------------------------------------------------|
b|--------------------------------------------------------------------------|
G|-------7-------------------9----------------------------------------------|
D|-7-----7-x8--7-------9-----9-x8--9----------------------------X2----------|
A|-7-x8--5-----7-x16---9-x8--7-----9-x16------------------------------------|
E|-5-----------5-------7-----------7----------------------------------------|

Interlude
E|--------------------------------------------------------------------------|
b|--------------------------------------------------------------------------|
G|-9--7------------9-9-(9999)--7-7-(7777)-----------------------------------|
D|-9--7--7--9------9-9-(9999)--7-7-(7777)--7-7-(7777)--9-9-(9999)-----------|
A|-7--5--7--9-x4---7-7-(7777)--5-5-(5555)--7-7-(7777)--9-9-(9999)---x4------|
E|-------5--7------------------------------5-5-(5555)--7-7-(7777)-----------|

( ) = Palm mute

Chorus

End.
ĂŽnscrie-te la newsletter


Join the ranks ! LIKE us on Facebook