Queen Of Hearts (ver2) Tab - The Birthday Massacre




Tabbed by: MurderBoy.
Email:

Tuning: DADGBE
Intro/Chorus X4
e|-------------------------------------------------------------------------|
B|------------------11-----------------------------------------------------|
G|--9-10-9-5-9-10-9--------------------------------------------------------|
D|-7-----------------------------------------------------------------------|
A|-------------------------------------------------------------------------|
D|-------------------------------------------------------------------------|

Verse (Palm Muted) X4
e|-------------------------------------------------------------------------|
B|-------------------------------------------------------------------------|
G|-------------------------------------------------------------------------|
D|-------------------------------------------------------------------------|
A|-------------------------------------------------------------------------|
D|-10-(X16)-9-(X16)-7-(X16)-5-(X16)----------------------------------------|

Chours X4

Verse  X4

Chorus X4

Solo Rhythm (Palm Mute) X8
e|-------------------------------------------------------------------------|
B|-------------------------------------------------------------------------|
G|-------------------------------------------------------------------------|
D|-------------------------------------------------------------------------|
A|-------------------------------------------------------------------------|
D|-12-(X8)-14-(X8)-8-(X8)-10-(X8)------------------------------------------|

Solo Lead X4 (Start after rhythm part plays through 4 times)
e|-------------------------------------------------------------------------|
B|-------------------------------------------------------------------------|
G|---9-10-5~-10-9-7-5-7~---------------------------------------------------|
D|-7-----------------------------------------------------------------------|
A|-------------------------------------------------------------------------|
D|-------------------------------------------------------------------------|

Chorus X8

End

Never say "No" to me.
ĂŽnscrie-te la newsletter


Join the ranks ! LIKE us on Facebook