Fight (ver2) Tab - The Classic Crime






Band Name: The Classic Crime
Song Name: The Fight
Album: Albatross

Tabbed by: Matt of Flawless Imperfection
Email: flawlessimpguitar@commspeed.net

The other tab for this had a few wrong things so this one is 99% perfect.

Tuning: Drop Db (Db Ab Db Gb Bb Eb)


|Intro|

Guitar 1:
Eb|------------------------------------------|
Bb|------------------------------------------|
Gb|------------------------------------------|
Db|-xxx-4-4-------xxx-0-0--xxx-2-2-----------|
Ab|-xxx-4-4-(2x)--xxx-0-0--xxx-2-2-----------|
Db|-xxx-4-4-------xxx-0-0--xxx-2-2-----------|

Guitar 2:
Eb|----------------------------------------------------------------|
Bb|----------------------------------------------------------------|
Gb|----9-9-9-9-9-9/11------------6-6-6-6-6-6/9------4-4-4-4/642--|
Db|--4-x-x-x-x-x-x-x---------0---x-x-x-x-x-x-x--2---x-x-x-x-x-x-x--|
Ab|--4-7-7-7-7-7-7/9---(2x)--0---4-4-4-4-4-4/7--2---2-2-2-2/42






Like us on Facebook